Avenged Sevenfold - Dear God Chords & Tabs

 

Dear God Chords & Tabs

Avenged Sevenfold Chords & Tabs

Version: 4 Type: Bass Tab 0 ratings
1 star 2 stars 3 stars 4 stars 5 stars
comments

Dear God Bass Tab

G|-----------------------------------------------------------------|
D|-3---3-------3h5-------------------------------------------------|
A|-----------------3---3-------0-3h5---5---7-h-8---0-------------0-|
D|-------------------------------------------------------------5---|
   1 + 2 + 3 + 4 + 1 + 2 + 3 + 4 + 1 + 2 + 3 + 4 + 1 + 2 + 3 + 4 +

G|---------------------------------------------------------2-0---0-|
D|-------------------------------0-------------------0-2-3-----3---|
A|-1---1-1-3---1-------------0-1---3---3---3---3---3---------------|
D|-----------------3---3---3---------------------------------------|
   1 + 2 + 3 + 4 + 1 + 2 + 3 + 4 + 1 + 2 + 3 + 4 + 1 + 2 + 3 + 4 +

0:13
G|-----------------------------------------------------------------|
D|-3---3---3---3h5-------------------------------------------------|
A|-----------------3---3---3---0-3h5---5---7-h-8---0-------0-----0-|
D|-------------------------------------------------------------5---|
   1 + 2 + 3 + 4 + 1 + 2 + 3 + 4 + 1 + 2 + 3 + 4 + 1 + 2 + 3 + 4 +

G|-----------------------------------------------------------------|
D|-------------------------------0---------------------------------|
A|-1---1-1-3---1-------------0-1---3---3---3---3---3---3---5---3---|
D|-----------------3---3---3---------------------------------------|
   1 + 2 + 3 + 4 + 1 + 2 + 3 + 4 + 1 + 2 + 3 + 4 + 1 + 2 + 3 + 4 +

0:29
G|-----------------------------------------------------------------|
D|-3---3-------3h5-------------------------------------------------|
A|-----------------3---3-3-3---0-3h5---5---7-h-8---0-------0-0---0-|
D|-------------------------------------------------------------5---|
   1 + 2 + 3 + 4 + 1 + 2 + 3 + 4 + 1 + 2 + 3 + 4 + 1 + 2 + 3 + 4 +

G|-----------------------------------------------------------------|
D|-------------------------------0---------------------------0-2-5-|
A|-1-------3---1-------------0-1---3-------3---3---3---3---3-------|
D|-----------------3---3---3---------------------------------------|
   1 + 2 + 3 + 4 + 1 + 2 + 3 + 4 + 1 + 2 + 3 + 4 + 1 + 2 + 3 + 4 +

0:42
G|-----------------------------------------------------------------|
D|-3---3-------3h5-------------------------------------------------|
A|-----------------3-----------0-3h5---5---7-h-8---0-----------0---|
D|-----------------------------------------------------------------|
   1 + 2 + 3 + 4 + 1 + 2 + 3 + 4 + 1 + 2 + 3 + 4 + 1 + 2 + 3 + 4 +

G|-----------------------------------------------------------------|
D|-------------------------------0---------------------0---2---5---|
A|-1-------3---1-------------0-1---3---3---3---3---3---------------|
D|-----------------3---3---3---------------------------------------|
   1 + 2 + 3 + 4 + 1 + 2 + 3 + 4 + 1 + 2 + 3 + 4 + 1 + 2 + 3 + 4 +

0:55
G|-----------------------------------------------------------------|
D|-3---3---3---3---------------------------------------------------|
A|-------------------3-3---3---3---5---5---5---5-----3-3---3---3---|
D|-----------------------------------------------------------------|
   1 + 2 + 3 + 4 + 1 + 2 + 3 + 4 + 1 + 2 + 3 + 4 + 1 + 2 + 3 + 4 +

G|-----------------------------------------------------------------|
D|----------------------------------------------------/7---5-3-2-2-|
A|-1---1---1---1-------------------3---3---3---3---3---------------|
D|-----------------3---3---3---3-----------------------------------|
   1 + 2 + 3 + 4 + 1 + 2 + 3 + 4 + 1 + 2 + 3 + 4 + 1 + 2 + 3 + 4 +

G|-----------------------------------------------------------------|
D|-3---3---3---3---------------------------------------------------|
A|-------------------3-3---3---3---5---5---5---5-----3-3---3---3---|
D|-----------------------------------------------------------------|
   1 + 2 + 3 + 4 + 1 + 2 + 3 + 4 + 1 + 2 + 3 + 4 + 1 + 2 + 3 + 4 +

G|-----------------------------------------------------------------|
D|-----------------------------------------------------------------|
A|-1---1---1---1-------------------3---3---3---3-------3---3-------|
D|-----------------3---3---3---3-----------------------------------|
   1 + 2 + 3 + 4 + 1 + 2 + 3 + 4 + 1 + 2 + 3 + 4 + 1 + 2 + 3 + 4 +

1:21
G|-----------------------------------------------------------------|
D|-----------------------------------------------------------------|
A|-1---1-1-1---1---3---3-3-3---3---0---0-0-0---0---5---5-5-3---3-3-|
D|-----------------------------------------------------------------|
   1 + 2 + 3 + 4 + 1 + 2 + 3 + 4 + 1 + 2 + 3 + 4 + 1 + 2 + 3 + 4 +

G|-----3---------------------------|
D|-------3-------------------------|
A|-1-------3-1-1-0-1---------------|
D|---------------------------------|

1:30
G|-----------------------------------------------------------------|
D|-3---3-------3h5-------------------------------------------------|
A|-----------------3---3-3-3-3-0-3h5---5---7-h-8---0---0-0-0-----0-|
D|-------------------------------------------------------------5---|
   1 + 2 + 3 + 4 + 1 + 2 + 3 + 4 + 1 + 2 + 3 + 4 + 1 + 2 + 3 + 4 +

G|---------------------------------------------------------2-0---0-|
D|-------------------------------0-------------------0-2-3-----3---|
A|-1---1-1-3---1-------------0-1---3---3-3-3---3-3-3---------------|
D|-----------------3---3---3---------------------------------------|
   1 + 2 + 3 + 4 + 1 + 2 + 3 + 4 + 1 + 2 + 3 + 4 + 1 + 2 + 3 + 4 +

1:43
G|-----------------------------------------------------------------|
D|-3---3-------3h5-------------------------------------------------|
A|-----------------3---3-3-3---0-3h5---5---7-h-8---0-------0-----0-|
D|-------------------------------------------------------------5---|
   1 + 2 + 3 + 4 + 1 + 2 + 3 + 4 + 1 + 2 + 3 + 4 + 1 + 2 + 3 + 4 +

G|-----------------------------------------------------------------|
D|-------------------------------0---------------------0-0-2-2-5-5-|
A|-1---1-1-3---1-------------0-1---3---3---3---3---3-3-------------|
D|-----------------3---3---3---------------------------------------|
   1 + 2 + 3 + 4 + 1 + 2 + 3 + 4 + 1 + 2 + 3 + 4 + 1 + 2 + 3 + 4 +

1:56
G|-----------------------------------------------------------------|
D|-3---3---3---3---------------------------------------------------|
A|-------------------3-3---3---3---5---5---5---5-----3-3---3---3---|
D|-----------------------------------------------------------------|
   1 + 2 + 3 + 4 + 1 + 2 + 3 + 4 + 1 + 2 + 3 + 4 + 1 + 2 + 3 + 4 +

G|-----------------------------------------------------------------|
D|----------------------------------------------------/7---5-3-2-2-|
A|-1---1---1---1-------------------3---3---3---3---3---------------|
D|-------------------3-3---3---3-----------------------------------|
   1 + 2 + 3 + 4 + 1 + 2 + 3 + 4 + 1 + 2 + 3 + 4 + 1 + 2 + 3 + 4 +

2:09
G|-----------------------------------------------------------------|
D|-3---------------------------------------------------------------|
A|-------------------3-3---3---3-------------------3---3---3---3---|
D|---------------------------------0-------0---0-------------------|
   1 + 2 + 3 + 4 + 1 + 2 + 3 + 4 + 1 + 2 + 3 + 4 + 1 + 2 + 3 + 4 +

G|-----------------------------------------------------------------|
D|-----------------------------------------------------------------|
A|-1-------1---1-------------------3---------3-3-3---3-3-3-3-3-3-2-|
D|-----------------3-------3---------------------------------------|
   1 + 2 + 3 + 4 + 1 + 2 + 3 + 4 + 1 + 2 + 3 + 4 + 1 + 2 + 3 + 4 +

2:22
G|-----------------------------------------------------------------|
D|-----------------------------------------------------------------|
A|-1---1-1-1---1---3---3-3-3---3---0---0-0-0---0---5---5-5-3---3-3-|
D|-----------------------------------------------------------------|
   1 + 2 + 3 + 4 + 1 + 2 + 3 + 4 + 1 + 2 + 3 + 4 + 1 + 2 + 3 + 4 +

G|-----------------------------------------------------------------|
D|-----------------------------------------------------------------|
A|-1---------------1-----------------------------------------------|
D|---------------------------------3-------------------------------|
   1 + 2 + 3 + 4 + 1 + 2 + 3 + 4 + 1 + 2 + 3 + 4 + 1 + 2 + 3 + 4 +

2:34
G|-----------------------------------------------------------------|
D|---------------------------------------------------------5-3-----|
A|-5-5---------5/7-4-4---------4-\-1-1-----3-1-0-------------------|
D|-----------------------------------------------5-3-3-3-3-----3-/-|
   1 + 2 + 3 + 4 + 1 + 2 + 3 + 4 + 1 + 2 + 3 + 4 + 1 + 2 + 3 + 4 +

2:40
G|-------------------------------------------------------------------|
D|-----------------------------------------------------------5-3-----|
A|---------------5/7-4-4-----4-5-4-\-1-1-------1-1-3-----------------|
D|-12-12---------------------------------------------3-3-3-3-----3-/-|
   1  +  2 + 3 + 4 + 1 + 2 + 3 + 4 + 1 + 2 + 3 + 4 + 1 + 2 + 3 + 4 +
[ Tab from: http://www.guitartabs.cc/tabs/a/avenged_sevenfold/dear_god_btab_ver_4.html ]
2:48
G|-------------------------------------------------------------------|
D|-----------------------------------------------------------5-3-----|
A|---------------5/7-4-4---------4-\-1-1-----3-1-0-------------------|
D|-12-12-------------------------------------------5-3-3-3-3-----3-/-|
   1  +  2 + 3 + 4 + 1 + 2 + 3 + 4 + 1 + 2 + 3 + 4 + 1 + 2 + 3 + 4 +

2:55
G|-------------------------------------------------------------------|
D|-----------------------------------------------------------5-3-----|
A|-5-5-5-5-5-5-5-5-7-4-4-4-4-5-4-3---1-1-1-1-1-1-1-3-----------------|
D|---------------------------------------------------3-3-3-3-----3-/-|
   1  +  2 + 3 + 4 + 1 + 2 + 3 + 4 + 1 + 2 + 3 + 4 + 1 + 2 + 3 + 4 +

G|-----------------------------------------------------------------|
D|-----------------------------------------------------------------|
A|---------------------------------3-3-3-3-3-3-3-3-3---------------|
D|-5-5-5-5-5-5-5-5-5-5-5-5-5-5-5-5---------------------------------|
   1 + 2 + 3 + 4 + 1 + 2 + 3 + 4 + 1 + 2 + 3 + 4 + 1 + 2 + 3 + 4 +

Rest

3:22
G|-----------------------------------------------------------------|
D|-3---3---3---3---------------------------------------------------|
A|-------------------3-3---3---3---5---5---5---5-----3-3---3---3---|
D|-----------------------------------------------------------------|
   1 + 2 + 3 + 4 + 1 + 2 + 3 + 4 + 1 + 2 + 3 + 4 + 1 + 2 + 3 + 4 +

G|-----------------------------------------------------------------|
D|----------------------------------------------------/7---5-3-2-2-|
A|-1---1-1-1---1-------------------3---------------3---------------|
D|---------------5-3-------3---3-----------------------------------|
   1 + 2 + 3 + 4 + 1 + 2 + 3 + 4 + 1 + 2 + 3 + 4 + 1 + 2 + 3 + 4 +

G|-----------------------------------------------------------------|
D|-3---3---3---3---------------------------------------------------|
A|-------------------3-3---3---3---5---5---5---5---3---3-----------|
D|-----------------------------------------------------------------|
   1 + 2 + 3 + 4 + 1 + 2 + 3 + 4 + 1 + 2 + 3 + 4 + 1 + 2 + 3 + 4 +

G|-----------------------------------------------------------------|
D|-----------------------------------------------------------------|
A|-1-------1---1-------------------3---3-----------3---3---3---3---|
D|-----------------3---3---3---------------------------------------|
   1 + 2 + 3 + 4 + 1 + 2 + 3 + 4 + 1 + 2 + 3 + 4 + 1 + 2 + 3 + 4 +

3:46
G|-----------------------------------------------------------------|
D|-----------------------------------------------------------------|
A|-1---1-1-1---1---3-------3---3---0---0-0-0---0---5---5-5-3---3-3-|
D|-----------------------------------------------------------------|
   1 + 2 + 3 + 4 + 1 + 2 + 3 + 4 + 1 + 2 + 3 + 4 + 1 + 2 + 3 + 4 +

G|---------------------------------|
D|---------------------------------|
A|-1---------------1---------------|
D|---------------------------------|
   1 + 2 + 3 + 4 + 1 + 2 + 3 + 4 +

3:56
G|-----------------------------------------------------------------|
D|-------------------------------------------------------2-5---2-3-|
A|-5-5-----5-5-----4-4-----4-4-----1-1-1---1-1-1-------------3-----|
D|-------------------------------------------------3-3-3-----------|
   1 + 2 + 3 + 4 + 1 + 2 + 3 + 4 + 1 + 2 + 3 + 4 + 1 + 2 + 3 + 4 +

G|-----------------------------------------------------------------|
D|-------------------------------------------------3-3-3-2-5---2-3-|
A|-5-5-----5-5-----4-4-----4-4-----1-1-1---1-1-1-------------3-----|
D|-----------------------------------------------------------------|
   1 + 2 + 3 + 4 + 1 + 2 + 3 + 4 + 1 + 2 + 3 + 4 + 1 + 2 + 3 + 4 +

4:09
G|-----------------------------------------------------------------|
D|-------------------------------------------------------2-5---2-3-|
A|-5-5-5---5-5-5---4-4-4---4-4-4---1-1-1---1-1-1-------------3-----|
D|-------------------------------------------------3-3-3-----------|
   1 + 2 + 3 + 4 + 1 + 2 + 3 + 4 + 1 + 2 + 3 + 4 + 1 + 2 + 3 + 4 +

G|-----------------------------------------------------------------|
D|-------------------------------------------------3-3-3-2-5---2-3-|
A|-5-5-5---5-5-5---4-4-4---4-4-4---1-1-1---1-1-1-------------3-----|
D|-----------------------------------------------------------------|
   1 + 2 + 3 + 4 + 1 + 2 + 3 + 4 + 1 + 2 + 3 + 4 + 1 + 2 + 3 + 4 +

4:24
G|-----------------------------------------------------------------|
D|-------------------------------------------------------2-5---2-3-|
A|-5-5-5-5-5-5-5-5-4-4-4-4-4-4-4-4-1-1-1---1-1-1-------------3-----|
D|-------------------------------------------------3-3-3-----------|
   1 + 2 + 3 + 4 + 1 + 2 + 3 + 4 + 1 + 2 + 3 + 4 + 1 + 2 + 3 + 4 +

G|-----------------------------------------------------------------|
D|-------------------------------------------------3-3-3-2-5---2-3-|
A|-5-5-5-5-5-5-5-5-4-4-4-4-4-4-4-4-1-1-1---1-1-1-------------3-----|
D|-----------------------------------------------------------------|
   1 + 2 + 3 + 4 + 1 + 2 + 3 + 4 + 1 + 2 + 3 + 4 + 1 + 2 + 3 + 4 +

4:38
G|-----------------------------------------------------------------|
D|-------------------------------------------------------2-5---2-3-|
A|-5-5---5-5-5---5-4-4---4-4-4---4-1-1-1---1-1-1-------------3-----|
D|-------------------------------------------------3-3-3-----------|
   1 + 2 + 3 + 4 + 1 + 2 + 3 + 4 + 1 + 2 + 3 + 4 + 1 + 2 + 3 + 4 +

G|-----------------------------------------------------------------|
D|-------------------------------------------------3-3-3-2-5---2-3-|
A|-5-5-5-5-5-5-5-5-4-4-4-4-4-4-4-4-1-1-1---1-1-1-------------3-----|
D|-----------------------------------------------------------------|
   1 + 2 + 3 + 4 + 1 + 2 + 3 + 4 + 1 + 2 + 3 + 4 + 1 + 2 + 3 + 4 +

4:54
G|-----------------------------------------------------------------|
D|-------------------------------------------------3-3-3-2-5---2-3-|
A|-5-5---5-5-5---5-4-4---4-4-4---4-1-1-1---1-1-1-------------3-----|
D|-----------------------------------------------------------------|
   1 + 2 + 3 + 4 + 1 + 2 + 3 + 4 + 1 + 2 + 3 + 4 + 1 + 2 + 3 + 4 +

G|-----------------------------------------------------------------|
D|-------------------------------------------------------2-5---2-3-|
A|-5-5-5-5-5-5-5-5-4-4-4-4-4-4-4-4-1-1-1---1-1-1-------------3-----|
D|-------------------------------------------------3-3-3-----------|
   1 + 2 + 3 + 4 + 1 + 2 + 3 + 4 + 1 + 2 + 3 + 4 + 1 + 2 + 3 + 4 +

5:08
G|-----------------------------------------------------------------|
D|-------------------------------------------------------2-5---2-3-|
A|-5-5-5---5-5-5---4-4-4---4-4-4---1-1-1---1-1-1-------------3-----|
D|-------------------------------------------------3-3-3-----------|
   1 + 2 + 3 + 4 + 1 + 2 + 3 + 4 + 1 + 2 + 3 + 4 + 1 + 2 + 3 + 4 +

G|-----------------------------------------------------------------|
D|-------------------------------------------------3-3-3-2-5---2-3-|
A|-5-5-5---5-5-5---4-4-4---4-4-4---1-1-1---1-1-1-------------3-----|
D|-----------------------------------------------------------------|
   1 + 2 + 3 + 4 + 1 + 2 + 3 + 4 + 1 + 2 + 3 + 4 + 1 + 2 + 3 + 4 +

5:24
G|-----------------------------------------------------------------|
D|-------------------------------------------------3-3-3-2-5---2-3-|
A|-5-5-5-5-5-5-5-5-4-4-4-4-4-4-4-4-1-1-1-1-1-1-1-1-----------3-----|
D|-----------------------------------------------------------------|
   1 + 2 + 3 + 4 + 1 + 2 + 3 + 4 + 1 + 2 + 3 + 4 + 1 + 2 + 3 + 4 +

G|-----------------------------------------------------------------|
D|-------------------------------------------------------2-5---2-3-|
A|-5-5-5-5-5-5-5-5-4-4-4-4-4-4-4-4-1-1-1-1-1-1-1-1-----------3-----|
D|-------------------------------------------------3-3-3-----------|
   1 + 2 + 3 + 4 + 1 + 2 + 3 + 4 + 1 + 2 + 3 + 4 + 1 + 2 + 3 + 4 +

5:40
G|-----------------------------------------------------------------|
D|-------------------------------------------------3-3-3-2-5---2-3-|
A|-5-5-5---5-5-5-5-4-4-4---4-4-4-4-1-1-1-1-1-1-1-------------3-----|
D|-----------------------------------------------------------------|
   1 + 2 + 3 + 4 + 1 + 2 + 3 + 4 + 1 + 2 + 3 + 4 + 1 + 2 + 3 + 4 +

G|-----------------------------------------------------------------|
D|-------------------------------------------------------2-5---2-3-|
A|-5-5-5---5-5-5-5-4-4-4---4-4-4-4-1-1-1-1-1-1-1-------------3-----|
D|-------------------------------------------------3-3-3-----------|
   1 + 2 + 3 + 4 + 1 + 2 + 3 + 4 + 1 + 2 + 3 + 4 + 1 + 2 + 3 + 4 +

5:55
G|-----------------------------------------------------------------|
D|-------------------------------------------------------2-5---2-3-|
A|-5-5-5---5-5-5-5-4-4-4---4-4-4-4-1-1-1---1-1-1-------------3-----|
D|-------------------------------------------------3-3-3-----------|
   1 + 2 + 3 + 4 + 1 + 2 + 3 + 4 + 1 + 2 + 3 + 4 + 1 + 2 + 3 + 4 +

G|-----------------------------------------------------------------|
D|-------------------------------------------------3-3-3-2-5---2-3-|
A|-5-5-5---5-5-5-5-4-4-4---4-4-4-4-1-1-1---1-1-1-------------3-----|
D|-----------------------------------------------------------------|
   1 + 2 + 3 + 4 + 1 + 2 + 3 + 4 + 1 + 2 + 3 + 4 + 1 + 2 + 3 + 4 +
Tabbed by Dave Vucko
Comments