Avenged Sevenfold - Chapter Four Chords & Tabs

 

Chapter Four Chords & Tabs

Avenged Sevenfold Chords & Tabs

Version: 5 Type: Tab 0 ratings
1 star 2 stars 3 stars 4 stars 5 stars
comments

Chapter Four Tab

---------------------------|
---------------------------|
---------------     Intro--| x2
---------------------------|
-0-2-3----0-7-8------------|
-0-2-3----0-7-8------------|

-------------------------------|
-------------------------------|
--------------       Intro #2--| x8
-0-----0-----0-----------------|
-0-000-0-000-0-----------------|
-0-000-0-000-0-----------------|
   ***   ***

Guitar 1
----------------------------------------------------------------|
----------------------------------------------------------------|
----------------------------------------------------------------|
------5-----5-7-5-7-------5-----2-3-2-3-------------------------|
-5-7-8-8-7-3-------8-5-7-8-8-7-1---2----------------------------|
---------------------------------------              Main Riff--| x2

Guitar 2
--------------------------------------------------------------------------|
--------------------------------------------------------------------------|
-7-7-7-7-7-7-7-7--5-5-5-5-5-5-5--3-3-3-3-3-3-3-3-3-3-3-3--5-5-5-5-5-5-5-5-|
-7-7-7-7-7-7-7-7--5-5-5-5-5-5-5--3-3-3-3-3-3-3-3-3-3-3-3--5-5-5-5-5-5-5-5-|
-5-5-5-5-5-5-5-5--3-3-3-3-3-3-3--1-1-1-1-1-1-1-1-1-1-1-1--3-3-3-3-3-3-3-3-|
--------------------------------------------------------------------------|

-------------------------------------------------------------------------|
-------------------------------------------------------------------------|
--------------------------------3-----3-----3----------------     Verse--| x2
-0-----0-----0----3-3-33-2-2-22-3-333-3-333-3-33-3-3-33-2-2-2------------|
-0-000-0-000-0-00-3-3-33-3-3-33-1-111-1-111-1-11-3-3-33-3-3-3------------|
-0-000-0-000-0-00-3-3-33-2-2-22------------------3-3-33-2-2-2------------|
   ***   ***   **                 ***   ***   **
[ Tab from: http://www.guitartabs.cc/tabs/a/avenged_sevenfold/chapter_four_tab_ver_5.html ]
-----------------------------------------------------------------|
-----------------------------------------------------------------|
-----------------------------------------------------------------|
-0-0-0-0-0-0-0-0-8-8-8-8-8-8-8-8-3-3-3-3-3-3-3-3-2-2-2-2-2-2-2-2-|
-0-0-0-0-0-0-0-0-8-8-8-8-8-8-8-8-3-3-3-3-3-3-3-3-3-3-3-3-3-3-3-3-|
-0-0-0-0-0-0-0-0-8-8-8-8-8-8-8-8-3-3-3-3-3-3-3-3-2-2-2-2-2-2-2-2-|
                                                                 Chorus x1
-----------------------------------------------------------------|
-----------------------------------------------------------------|
-------------------------------------------------6-6-6-6-6-6-6-6-|
-0-0-0-0-0-0-0-0-8-8-8-8-8-8-8-8-3-3-3-3-3-3-3-3-6-6-6-6-6-6-6-6-|
-0-0-0-0-0-0-0-0-8-8-8-8-8-8-8-8-3-3-3-3-3-3-3-3-4-4-4-4-4-4-4-4-|
-0-0-0-0-0-0-0-0-8-8-8-8-8-8-8-8-3-3-3-3-3-3-3-3-----------------|

---------------------------------------------------------|
---------------------------------------------------------|
-14-14-1414-12-12-12-10-10-10-10-12-12-12   Post Chorus--| x2
-xx-xx-xxxx-xx-xx-xx-xx-xx-xx-xx-xx-xx-xx----------------|
-12-12-1212-10-10-10-8--8--8--8--10-10-10----------------|
---------------------------------------------------------|

Guitar 1
------5---------------5-6-5-3h5p3----------5------------5--------------|
----6---8-6-5-6~~---6-------------5-6----6---8-6-5----6--------8-10~~~-|
-/7--------------/7-------------------/7-----------/7~~-----/9~~~------|
-----------------------------------------------------------------------|
-----------------------------------------------------------------------|
-----------------------------------------------------------------------|
                           Main Riff 2 x2
Guitar 2
--------------------------------------------------------------------------|
--------------------------------------------------------------------------|
-7-7-7-7-7-7-7-7--5-5-5-5-5-5-5--3-3-3-3-3-3-3-3-3-3-3-3--5-5-5-5-5-5-5-5-|
-7-7-7-7-7-7-7-7--5-5-5-5-5-5-5--3-3-3-3-3-3-3-3-3-3-3-3--5-5-5-5-5-5-5-5-|
-5-5-5-5-5-5-5-5--3-3-3-3-3-3-3--1-1-1-1-1-1-1-1-1-1-1-1--3-3-3-3-3-3-3-3-|
--------------------------------------------------------------------------|

(Play Verse)
(Play Chorus)
(Play Chorus 2)
(Play Main Riff 2)

Guitar 1
----------------------------------------------|
----------------------------------------------|
------------------------------     Interlude--| x4
----------------------------------------------|
----0000----0000----------0000----------------|
-7~~0000-7~~0000-7~~6~~7~~0000----------------|
    ****    ****          ****

Guitar 2
------------------------------------|
------------------------------------|
------------------------------------|
------------------------------------|
-----0000-----0000-------------0000-|
-11~~0000-11~~0000-11~~10~~11~~0000-|
     ****     ****             ****

(Play Intro)

----------------------------------------------------------------|
----------------------------------------------------------------|
----------------------------------------------------    Bridge--| x4
-0-0-0-0-0-0-7-7-7-7-7-7-5-7-8-8-8-8-8-8-3-3-3-2-2-2------------|
-0-0-0-0-0-0-7-7-7-7-7-7-5-7-8-8-8-8-8-8-3-3-3-3-3-3------------|
-0-0-0-0-0-0-7-7-7-7-7-7-5-7-8-8-8-8-8-8-3-3-3-2-2-2------------|

Sorry I dont have the solo right now!!
When i find out how to play it i will post it!

If u have any ideas tell me on aim=callmemattdamon
Comments