Avenged Sevenfold - Burn It Down Chords & Tabs

 

Burn It Down Chords & Tabs

Avenged Sevenfold Chords & Tabs

Version: 6 Type: Tab 0 ratings
1 star 2 stars 3 stars 4 stars 5 stars
comments

Burn It Down Tab

   
Artist-Avenged Sevenfold
Song-Burn It Down

Gtr I (D A D G B E) - 'Zacky Vengeance'
Gtr II (D A D G B E) - 'Synyster Gates'
Gtr III (D A D G B E) - 'Third guitar'

   

    PM--|     PM-------------------------------------------|
    S S e  E  S S S S e  S S e    S S e  E  S S S S e  S S e   4x
||------------------------------|------------------------------||
||o-----------------------------|-----------------------------o||
||------------------------------|------------------------------||
||------------------------------|------------------------------||
||o-0-0-0-----0-0-0-0-0--0-0-0--|-0-0-0-----0-0-0-0-0--0-0-0--o||
||--0-0-0-----0-0-0-0-0--0-0-0--|-0-0-0-----0-0-0-0-0--0-0-0---||


[ Tab from: http://www.guitartabs.cc/tabs/a/avenged_sevenfold/burn_it_down_tab_ver_6.html ]
  C5           G5             F5           G5
  Gtr I
   E  E  E   E  E  E  E   E    E  E  E   E  E  E  E   E
|--8---------8--7---------7-|--8---------8-10--------10-|
|-------10------------8-----|-------10-----------12-----|
|-----9------------9--------|----10-----------12--------|
|---------------------------|---------------------------|
|---------------------------|---------------------------|
|---------------------------|---------------------------|
|
| Gtr II
|  E  E  E   E  E  E  E   E    E  E  E   E  E  E  E   E
|-12--------12-10--------10-|-12--------12-13--------13-|
|-------13-----------12-----|-------13-----------15-----|
|----12-----------12--------|----14-----------16--------|
|---------------------------|---------------------------|
|---------------------------|---------------------------|
|---------------------------|---------------------------|
|
| Gtr III
|  E  E +E   E  E  E +E   E    E  E +E   E  E  E +E   E
|---------------------------|---------------------------|
|---------------------------|---------------------------|
|--5--5-(5)--5--------------|---------------------------|
|--5--5-(5)--5--5--5-(5)--5-|--3--3-(3)--3--5--5-(5)--5-|
|--3--3-(3)--3--5--5-(5)--5-|--3--3-(3)--3--5--5-(5)--5-|
|---------------5--5-(5)--5-|--3--3-(3)--3--5--5-(5)--5-|


  C5           G5             F5           G5
   E  E  E   E  E  E  E   E    E  E  E   E  E  E  E   E
|--8---------8--7---------7-|--8---------8-10--------10-|
|-------10------------8-----|-------10-----------12-----|
|-----9------------9--------|----10-----------12--------|
|---------------------------|---------------------------|
|---------------------------|---------------------------|
|---------------------------|---------------------------|
|
|  E  E  E   E  E  E  E   E    E  E  E   E  E  E  E   E
|-12--------12-10--------10-|-12--------12-13--------13-|
|-------13-----------12-----|-------13-----------15-----|
|----12-----------12--------|----14-----------16--------|
|---------------------------|---------------------------|
|---------------------------|---------------------------|
|---------------------------|---------------------------|
|
|  E  E +E   E  E  E +E   E    E  E +E   E  E  E +E   E
|---------------------------|---------------------------|
|---------------------------|---------------------------|
|--5--5-(5)--5--------------|---------------------------|
|--5--5-(5)--5--5--5-(5)--5-|--3--3-(3)--3--5--5-(5)--5-|
|--3--3-(3)--3--5--5-(5)--5-|--3--3-(3)--3--5--5-(5)--5-|
|---------------5--5-(5)--5-|--3--3-(3)--3--5--5-(5)--5-|




Tablature Legend
----------------
 h   - hammer-on
 p   - pull-off
 b   - bend
 pb  - pre-bend
 r   - bend release (if no number after the r, then release immediately)
 /\  - slide into or out of (from/to "nowhere")
 s   - legato slide
 S   - shift slide
Comments