Avenged Sevenfold - Burn It Down Chords & Tabs

 

Burn It Down Chords & Tabs

Avenged Sevenfold Chords & Tabs

Version: 1 Type: Tab 0 ratings
1 star 2 stars 3 stars 4 stars 5 stars
comments

Burn It Down Tab

e|--------------------------------------------------------------------------|
B|--------------------------------------------------------------------------|
G|--------------------------------------------------------------------------|
D|-0--0-0-0--0-0--0-0-------------------------------------------------------|
A|-0--0-0-0--0-0--0-0----(x8)-----------------------------------------------|
D|-0--0-0-0--0-0--0-0-------------------------------------------------------|

e|-12-----12-10----10-12----12-13----13-12----12-10----10-12----12-13----13-|
B|---13--------12-------13-------15-------13-------12-------13-------15-----|
G|-----14--------12-------14-------14-------14-------12-------14-------14---|
D|--------------------------------------------------------------------------|
A|--------------------------------------------------------------------------|
D|--------------------------------------------------------------------------|

e|-8----8-10----10-12----12-13----13-15----15-13----13-12------12~~~~~~~~---|
B|--10------12-------13-------15-------17-------15-------13--13-------------|
G|----10------12-------14-------14-------17-------14-------14---------------|
D|--------------------------------------------------------------------------|
A|--------------------------------------------------------------------------|
D|--------------------------------------------------------------------------|


e|-----------------------------|
b|-----------------------------|
g|-----------------------------|
d|--2--5--2--5--2--5--2--5-----| repeat for a while
a|--0--3--0--3--0--3--0--3-----|
d|-----------------------------|


e|--------------------------------------------|
b|--------------------------------------------|
g|--------------------------------------------|
d|-7-7-7-7-7--5-5-5-5-5--3-3-3-3-3-3-3-3-3-3--|
a|-5-5-5-5-5--3-3-3-3-3--1-1-1-1-1-1-1-1-1-1--|
d|--------------------------------------------|
    Hatred.....fuels my...blood.....I'll burn ya down
[ Tab from: http://www.guitartabs.cc/tabs/a/avenged_sevenfold/burn_it_down_tab.html ]
e|-----------------------------------|
b|-----------------------------------|
g|-----------------------------------|
d|--x-x-x-0-x-x-x-0-x-x-x-0-x-x-x-0--|
a|--x-x-x-0-x-x-x-0-x-x-x-0-x-x-x-0--|
d|--x-x-x-0-x-x-x-0-x-x-x-0-x-x-x-0--|
     You can't help me...

REPEAT THAT A FEW TIMES. JUST PLAY AROUND WITH THOSE TABS BECAUSE IT CHANGES A BIT INTO IT.

e|---------------------------|
b|---------------------------|
g|---------------------------|
d|-0-0-0-0-0-0-------0-------|
a|-0-0-0-0-0-0-------0-------|
d|-0-0-0-0-0-0--5~~--0--8~~--|

back to intro.


e|-----------------------------|
b|-----------------------------|
g|-----------------------------|
d|--2--5--2--5--2--5--2--5-----| repeat for a while
a|--0--3--0--3--0--3--0--3-----|
d|-----------------------------|
   Your on my back...

e|--------------------------------------------|
b|--------------------------------------------|
g|--------------------------------------------|
d|-7-7-7-7-7--5-5-5-5-5--3-3-3-3-3-3-3-3-3-3--|
a|-5-5-5-5-5--3-3-3-3-3--1-1-1-1-1-1-1-1-1-1--|
d|--------------------------------------------|
    Hatred.....fuels my...blood.....I'll burn ya down

e|-----------------------------------|
b|-----------------------------------|
g|-----------------------------------|
d|--x-x-x-0-x-x-x-0-x-x-x-0-x-x-x-0--|
a|--x-x-x-0-x-x-x-0-x-x-x-0-x-x-x-0--|
d|--x-x-x-0-x-x-x-0-x-x-x-0-x-x-x-0--|
     You can't help me...

e|----------------------------------------------------------|
b|----------------------------------------------------------|
g|----------------------------------------------------------|
d|-0-0-0-0-0--0-0-0-0-0--0-0-0-0-0--------------------------| x 3
a|-0-0-0-0-0--0-0-0-0-0--0-0-0-0-0--------------------------|
d|-0-0-0-0-0--0-0-0-0-0--0-0-0-0-0-5^5^5^5^5^5^5^5^5^5^5^---|
                                    each one u hit, bend
                                    down further...

goes back to...

e|---------------------------|
b|---------------------------|
g|---------------------------|
d|-0-0-0-0-0-0-------0-------|
a|-0-0-0-0-0-0-------0-------|
d|-0-0-0-0-0-0--5~~--0--8~~--|

dont really know the next part. it does have this in it tho...

e|--------------------------------------------|
b|--------------------------------------------|
g|--------------------------------------------|
d|-7-7-7-7-7--5-5-5-5-5--3-3-3-3-3-3-3-3-3-3--|
a|-5-5-5-5-5--3-3-3-3-3--1-1-1-1-1-1-1-1-1-1--|
d|--------------------------------------------|

thats all i got!

Comments