Avenged Sevenfold - Burn It Down Chords & Tabs

 

Burn It Down Chords & Tabs

Avenged Sevenfold Chords & Tabs

Version: 3 Type: Bass Tab 0 ratings
1 star 2 stars 3 stars 4 stars 5 stars
comments

Burn It Down Bass Tab

   
G|-------------------------------------------------------------------|
D|o-----------------------------------------------------------------o|
A|o-----------------------------------------------------------------o|x4
D|--0-0-0-------0-0-0-0-0---0-0-0---0-0-0-------0-0-0-0-0---0-0-0----|
    1 e + a 2 e + a 3 e + a 4 e + a 1 e + a 2 e + a 3 e + a 4 e + a

0:10
G|-----------------------------------------------------------------|
D|-----------------------------------------------------------------|
A|-3-33-33-------------------------3-33-33-------------------------|
D|---------5-55-55-3-33-33-5-55-55---------5-55-55-3-33-33-5-55-55-|
   1 + 2 + 3 + 4 + 1 + 2 + 3 + 4 + 1 + 2 + 3 + 4 + 1 + 2 + 3 + 4 +

G|-----------------------------------------------------------------|
D|-----------------------------------------------------------------|
A|-----------------0-00-00-2-22-22-3-33-33-7-77-77-0-00-00---------|
D|-3-33-33-5-55-55-----------------------------------------5-55-55-|
   1 + 2 + 3 + 4 + 1 + 2 + 3 + 4 + 1 + 2 + 3 + 4 + 1 + 2 + 3 + 4 +

Verse 0:21
G|-------------------------------------------------------------------|
D|o-----------------------------------------------------------------o|
A|o-0---0-0-1---0-0-0---0-0-3---0-0-0---0-0-1---0-0-0-0-0-------0-0-o|x3
D|-------------------------------------------------------------------|
    1 e + a 2 e + a 3 e + a 4 e + a 1 e + a 2 e + a 3 e + a 4 e + a

G|-----------------------------------------------------------------|
D|-----------------------------------------------------------------|
A|-0---0-0-1---0-0-0---0-0-3---0-0-0---0-0-1---0-0-0---------------|
D|-----------------------------------------------------5---3---2---|
   1 e + a 2 e + a 3 e + a 4 e + a 1 e + a 2 e + a 3 e + a 4 e + a

Pre Chorus 0:32
G|-----------------------------------------------------------------|
D|-----------------------------------------------------------------|
A|-5---5---5-5-5-5-4-4-4-4-4-4-4---------------------4-4-4-4-5-5---|
D|---------------------------------5-5-5-5-5-5-5-5-----------------|
   1 + 2 + 3 + 4 + 1 + 2 + 3 + 4 + 1 + 2 + 3 + 4 + 1 + 2 + 3 + 4 +

G|-----------------------------------------------------------------|
D|-----------------------------------------------------------------|
A|---------8---------------7---------------10--------------8-------|
D|-0-0-0-0---------0-0-0-0---------0-0-0-0---------0-0-0-0---------|
   1 e + a 2 e + a 3 e + a 4 e + a 1 e + a 2 e + a 3 e + a 4 e + a

G|-----------------------------------------------------------------|
D|-----------------------------------------------------------------|
A|-5---5-5-5-5-5-5-4-4-4-4-4-4-4-4-------------------4-4-4-4-5-5-5-|
D|---------------------------------5-5-5-5-5-5-5-5-----------------|
   1 + 2 + 3 + 4 + 1 + 2 + 3 + 4 + 1 + 2 + 3 + 4 + 1 + 2 + 3 + 4 +

G|-----------------------------------------------------------------|
D|-----------------------------------------------------------------|
A|---------8---------------7---------------10--------------8-------|
D|-0-0-0-0---------0-0-0-0---------0-0-0-0---------0-0-0-0---------|
   1 e + a 2 e + a 3 e + a 4 e + a 1 e + a 2 e + a 3 e + a 4 e + a

Chorus 0:48
G|-----------------------------------------------------------------|
D|-----------------------------------------------------------------|
A|-5---5-----5-5-1-3---3-3---3-1-----1-1---1-1-1-1-3-1-0-1-0-1-1-3-|
D|-----------------------------------------------------------------|
   1 + 2 + 3 + 4 + 1 + 2 + 3 + 4 + 1 + 2 + 3 + 4 + 1 + 2 + 3 + 4 +

G|-----------------------------------------------------------------|
D|-----------------------------------------------------------------|
A|-5---5---5-5-5-5-3-3-3-3---3-1-----1-1-1-1-1-1-1-----------------|
D|-------------------------------------------------000-0-0-000-000-|
   1 + 2 + 3 + 4 + 1 + 2 + 3 + 4 + 1 + 2 + 3 + 4 + 1 + 2 + 3 + 4 +

G|-----------------------------------------------------------------|
D|-----------------------------------------------------------------|
A|-5---5-----5-5-1-3---3-3---3-1-----1-1---1-1-1-1-3-1-0-1-0-1-1-3-|
D|-----------------------------------------------------------------|
   1 + 2 + 3 + 4 + 1 + 2 + 3 + 4 + 1 + 2 + 3 + 4 + 1 + 2 + 3 + 4 +

G|-----------------------------------------------------------------|
D|-----------------------------------------------------------------|
A|-5---5-----5-5---3-3-3-3---3-1-----1-1-1-1-1-1-1-1-1-1-1-1-1-1-1-|
D|-----------------------------------------------------------------|
   1 + 2 + 3 + 4 + 1 + 2 + 3 + 4 + 1 + 2 + 3 + 4 + 1 + 2 + 3 + 4 +

Interlude 1:10
G|-------------------------------------------------------------------|
D|o-----------------------------------------------------------------o|
A|o-----------------------------------------------------------------o|
D|--000-0-0-0---0---0-5-----0-8-----000-0-0-0---0---0-5-----0-8------|
    1 + 2 + 3 + 4 + 1 + 2 + 3 + 4 + 1 + 2 + 3 + 4 + 1 + 2 + 3 + 4 +

rest

1:24
G|-----------------------------------------------------------------------|
D|-----------------------------------------------------------------------|
A|-0---0-3-33-33-------------------------3-33-33-------------------------|
D|---------------5-55-55-3-33-33-5-55-55---------5-55-55-3-33-33-5-55-55-|
   + 4 + 1 + 2 + 3 + 4 + 1 + 2 + 3 + 4 + 1 + 2 + 3 + 4 + 1 + 2 + 3 + 4 +

G|-----------------------------------------------------------------|
D|-----------------------------------------------------------------|
A|-----------------0-00-00-2-22-22-3-33-33-7-77-77-0-00-00---------|
D|-3-33-33-5-55-55-----------------------------------------5-55-55-|
   1 + 2 + 3 + 4 + 1 + 2 + 3 + 4 + 1 + 2 + 3 + 4 + 1 + 2 + 3 + 4 +

Verse 1:36
G|-------------------------------------------------------------------|
D|o-----------------------------------------------------------------o|
A|o-0---0-0-1---0-0-0---0-0-3---0-0-0---0-0-1---0-0-0-0-0-------0-0-o|x3
D|-------------------------------------------------------------------|
    1 e + a 2 e + a 3 e + a 4 e + a 1 e + a 2 e + a 3 e + a 4 e + a

G|-----------------------------------------------------------------|
D|-----------------------------------------------------------------|
A|-0---0-0-1---0-0-0---0-0-3---0-0-0---0-0-1---0-0-0---------------|
D|-----------------------------------------------------5---3---2---|
   1 e + a 2 e + a 3 e + a 4 e + a 1 e + a 2 e + a 3 e + a 4 e + a

Pre Chorus 1:46
G|-----------------------------------------------------------------|
D|-----------------------------------------------------------------|
A|-5---5---5-5-5-5-4-4-4-4-4-4-4---------------------4-4-4-4-5-5---|
D|---------------------------------5-5-5-5-5-5-5-5-----------------|
   1 + 2 + 3 + 4 + 1 + 2 + 3 + 4 + 1 + 2 + 3 + 4 + 1 + 2 + 3 + 4 +

G|-----------------------------------------------------------------|
D|-----------------------------------------------------------------|
A|---------8---------------7---------------10--------------8-------|
D|-0-0-0-0---------0-0-0-0---------0-0-0-0---------0-0-0-0---------|
   1 e + a 2 e + a 3 e + a 4 e + a 1 e + a 2 e + a 3 e + a 4 e + a

G|-----------------------------------------------------------------|
D|-----------------------------------------------------------------|
A|-5---5-5-5-5-5-5-4-4-4-4-4-4-4-4-------------------4-4-4-4-5-5-5-|
D|---------------------------------5-5-5-5-5-5-5-5-----------------|
   1 + 2 + 3 + 4 + 1 + 2 + 3 + 4 + 1 + 2 + 3 + 4 + 1 + 2 + 3 + 4 +

G|-----------------------------------------------------------------|
D|-----------------------------------------------------------------|
A|---------8---------------7---------------10--------------8-------|
D|-0-0-0-0---------0-0-0-0---------0-0-0-0---------0-0-0-0---------|
   1 e + a 2 e + a 3 e + a 4 e + a 1 e + a 2 e + a 3 e + a 4 e + a

Chorus 2:02
G|-----------------------------------------------------------------|
D|-----------------------------------------------------------------|
A|-5---5-----5-5-1-3-3-3-3---3-1-----1-1---1-1-1-1-1-1-1-1-1-1-1-1-|
D|-----------------------------------------------------------------|
   1 + 2 + 3 + 4 + 1 + 2 + 3 + 4 + 1 + 2 + 3 + 4 + 1 + 2 + 3 + 4 +
[ Tab from: http://www.guitartabs.cc/tabs/a/avenged_sevenfold/burn_it_down_btab_ver_3.html ]
G|-------------------------------------------------------------------------------------------------|
D|---------------------------------------------5-5-5-5---------------------------------------------|
A|-5-5-5-5-5-5-5-5-7-7-7-7-7-7-8-8-8-8-8-8-8-8---------1-1-1-1-1-1-0-------------------------------|
D|-------------------------------------------------------------------------------------------------|
   1 + 2 + 3 + 4 + 1 + 2 + 3 + 4 + 1 + 2 + 3 + 4 + 1 + 2 + 3 + 4 + 1 + 2 + 3 + 4 + 1 + 2 + 3 + 4 +

G|-----------------------------------------------------------------|
D|-----------------------------------------------------------------|
A|-5---5-----5-5-1-3-3-3-3---3-1-----1-1-1-1-1-1-1-1-1-1-1-1-1-1-1-|
D|-----------------------------------------------------------------|
   1 + 2 + 3 + 4 + 1 + 2 + 3 + 4 + 1 + 2 + 3 + 4 + 1 + 2 + 3 + 4 +

G|-----------------------------------------------------------------|
D|---------------------------------------------5-5-5-5-------------|
A|-5-5-5-5-5-5-5-5-7-7-7-7-7-7-8-8-8-8-8-8-8-8---------1-1-1-1-0---|
D|-----------------------------------------------------------------|
   1 + 2 + 3 + 4 + 1 + 2 + 3 + 4 + 1 + 2 + 3 + 4 + 1 + 2 + 3 + 4 + 

G|-----------------------------------------------------------------|
D|-----------------------------------------------------------------|
A|-5-----------5---3-----3-----1-----------------------------------|
D|-----------------------------------------------------------------|
   1 + 2 + 3 + 4 + 1 + 2 + 3 + 4 + 1 + 2 + 3 + 4 + 1 + 2 + 3 + 4 +

Breakdown 2:33
G|-----------------------------------------------------------------|
D|-----------------------------------------------------------------|
A|-----------------------------------------------------------------|
D|-000-0-0-0-------000-0-0-0-------000-0-0-0-------------/-8-------|
   1 + 2 + 3 + 4 + 1 + 2 + 3 + 4 + 1 + 2 + 3 + 4 + 1 + 2 + 3 + 4 +

G|-------------------------------------------------------------------|
D|o-----------------------------------------------------------------o|
A|o-----------------------------------------------------------------o|
D|--000-0-0-0-------000-0-0-0-------000-0-0-0------------------------|
    1 + 2 + 3 + 4 + 1 + 2 + 3 + 4 + 1 + 2 + 3 + 4 + 1 + 2 + 3 + 4 +

2:49
G|-------------------------------------------------------------------|
D|o-----------------------------------------------------------------o|
A|o-----------------------------------------------------------------o|
D|--000-0-0-0---0---0-5-----0-8-----000-0-0-0---0---0-5-----0-8------|
    1 + 2 + 3 + 4 + 1 + 2 + 3 + 4 + 1 + 2 + 3 + 4 + 1 + 2 + 3 + 4 +

Bridge 3:00
G|-----------------------------------------------------------------|
D|-----------------------------------------------------------------|
A|-----------------------------0-----0-0-0-0-0-0-0-2-2-2---2-2-2---|
D|-3-3-3-3-3-3-3-3-5-5-5-5-5-5-------------------------------------|
   1 + 2 + 3 + 4 + 1 + 2 + 3 + 4 + 1 + 2 + 3 + 4 + 1 + 2 + 3 + 4 +

G|-----------------------------------------------------------------|
D|-----------------------------------------------------------------|
A|-3-3-3-3-3-3-3-3-7-7-7-7-7-7-0-0-0-0-0-0-0-0---------------------|
D|---------------------------------------------5-5-5-5-5-5-5-5-5-5-|
   1 + 2 + 3 + 4 + 1 + 2 + 3 + 4 + 1 + 2 + 3 + 4 + 1 + 2 + 3 + 4 +

G|-----------------------------------------------------------------|
D|-----------------------------------------------------------------|
A|-----------------------------0-----0-0---0-0-0---2-2-2---2-2-2---|
D|-3-3-3-3-3-3-3-3-5-5-5-5-5-5-------------------------------------|
   1 + 2 + 3 + 4 + 1 + 2 + 3 + 4 + 1 + 2 + 3 + 4 + 1 + 2 + 3 + 4 +

G|-----------------------------------------------------------------|
D|-----------------------------------------------------------------|
A|-3---3-3-3-3-3-3-7-7-7-7-7-7-0-----0-0-0-0-0---------------------|
D|---------------------------------------------5-5-5-5-5-5-5-5-5-5-|
   1 + 2 + 3 + 4 + 1 + 2 + 3 + 4 + 1 + 2 + 3 + 4 + 1 + 2 + 3 + 4 +

3:22
G|-----------------------------------------------------------------|
D|-----------------------------------------------------------------|
A|-----------------------------0-----0-0-0-0-0-0-0-2-2-2-2-2-2-2-2-|
D|-3---3-3-3-3-3-3-5-5-5-5-5-5-------------------------------------|
   1 + 2 + 3 + 4 + 1 + 2 + 3 + 4 + 1 + 2 + 3 + 4 + 1 + 2 + 3 + 4 +

G|-----------------------------------------------------------------|
D|-----------------------------------------------------------------|
A|-3-3-3-3-3-3-3-3-7-7-7-7-7-7-0-----0-0-0-0-0---------------------|
D|---------------------------------------------5-5-5-5-5-5-5-5-5-5-|
   1 + 2 + 3 + 4 + 1 + 2 + 3 + 4 + 1 + 2 + 3 + 4 + 1 + 2 + 3 + 4 +

3:33
G|-----------------------------------------------------------------|
D|-----------------------------------------------------------------|
A|-----------------------------0-0-0-0-0-0-0-0-0-0-2-2-2-2-2-2-2-2-|
D|-3-3-3-3-3-3-3-3-5-5-5-5-5-5-------------------------------------|
   1 + 2 + 3 + 4 + 1 + 2 + 3 + 4 + 1 + 2 + 3 + 4 + 1 + 2 + 3 + 4 +

G|---------------------------------|
D|---------------------------------|
a|-3-3-3-3-3-3-3-3-7-7-7-7-7-7-7-7-|
D|---------------------------------|
   1 + 2 + 3 + 4 + 1 + 2 + 3 + 4 + 

Solo 3:41
G|-------------------------------------------------------------------|
D|o-----------------------------------------------------------------o|
A|o-0---0-0-1---0-0-0---0-0-3---0-0-0---0-0-1---0-0-0-0-0-------0-0-o|x3
D|-------------------------------------------------------------------|
    1 e + a 2 e + a 3 e + a 4 e + a 1 e + a 2 e + a 3 e + a 4 e + a

G|-----------------------------------------------------------------|
D|-----------------------------------------------------------------|
A|-0---0-0-1---0-0-0---0-0-3---0-0-0---0-0-1---0-0-0---------------|
D|-----------------------------------------------------5---3---2---|
   1 e + a 2 e + a 3 e + a 4 e + a 1 e + a 2 e + a 3 e + a 4 e + a

3:52
G|-----------------------------------------------------------------|
D|-----------------------------------------------------------------|
A|-5---5---5-5-5-5-4-4-4-4-4-4-4-4-------------------4-4-4-4-5-5---|
D|---------------------------------5-5-5-5-5-5-5-5-----------------|
   1 + 2 + 3 + 4 + 1 + 2 + 3 + 4 + 1 + 2 + 3 + 4 + 1 + 2 + 3 + 4 +

Rest

Chorus 4:00
G|-------------------------------------------------------------------------|
D|-------------------------------------------------------------------------|
A|-1--1--1-5---5-----5-5-1-3-3-3-3---3-1-----1-1-1-1-1-1-1-1-1-1---1-1-1-1-|
D|-------------------------------------------------------------------------|
   Triplet 1 + 2 + 3 + 4 + 1 + 2 + 3 + 4 + 1 + 2 + 3 + 4 + 1 + 2 + 3 + 4 +

G|-------------------------------------------------------------------------------------------------|
D|---------------------------------------------5-5-5-5---------------------------------------------|
A|-5-5-5-5-5-5-5-5-7-7-7-7-7-7-8-8-8-8-8-8-8-8---------1-1-1-1-1-1-0-0-0-0-0-0-0-0-0-0-0-0-0-0-0-0-|
D|-------------------------------------------------------------------------------------------------|
   1 + 2 + 3 + 4 + 1 + 2 + 3 + 4 + 1 + 2 + 3 + 4 + 1 + 2 + 3 + 4 + 1 + 2 + 3 + 4 + 1 + 2 + 3 + 4 +

G|-----------------------------------------------------------------|
D|-----------------------------------------------------------------|
A|-5---5-----5-5-1-3-3-3-3---3-1-----1-1---1-1-1-1-1-1-1---1-1-1-1-|
D|-----------------------------------------------------------------|
   1 + 2 + 3 + 4 + 1 + 2 + 3 + 4 + 1 + 2 + 3 + 4 + 1 + 2 + 3 + 4 +

G|-----------------------------------------------------------------|
D|---------------------------------------------5-5-5-5-------------|
A|-5-5-5-5-5-5-5-5-7-7-7-7-7-7-8-8-8-8-8-8-8-8---------1-1-1-1-0---|
D|-----------------------------------------------------------------|
   1 + 2 + 3 + 4 + 1 + 2 + 3 + 4 + 1 + 2 + 3 + 4 + 1 + 2 + 3 + 4 + 

G|-----------------------------------------------------------------|
D|-----------------------------------------------------------------|
A|-5-----------5---3-----3-----1-----------------------------------|
D|-----------------------------------------------------------------|
   1 + 2 + 3 + 4 + 1 + 2 + 3 + 4 + 1 + 2 + 3 + 4 + 1 + 2 + 3 + 4 +

Outro 4:30
G|-----------------------------------------------------------------|
D|-----------------------------------------------------------------|
A|---------------------------------0-0-0-0-0-0-1-----1-1-1-1-1-1-1-|
D|-5-5-5-5-5-5-3-----3-3-3-3---3-3---------------------------------|
   1 + 2 + 3 + 4 + 1 + 2 + 3 + 4 + 1 + 2 + 3 + 4 + 1 + 2 + 3 + 4 +

G|-----------------------------------------------------------------|
D|-----------------------------------------------------------------|
A|-----------------------------------------------------------------|
D|-5-5-5-5-5-5-3-----3-3-3-3---3-3-0-------------------------------|
   1 + 2 + 3 + 4 + 1 + 2 + 3 + 4 + 1 + 2 + 3 + 4 + 1 + 2 + 3 + 4 +

4:42
G|-----------------------------------------------------------------|
D|-----------------------------------------------------------------|
A|---------------------------------0-0-0-0-0-0-1-----1-1-1-1-1-1-1-|
D|-5-5-5-5-5-5-3-----3-3-3-3---3-3---------------------------------|
   1 + 2 + 3 + 4 + 1 + 2 + 3 + 4 + 1 + 2 + 3 + 4 + 1 + 2 + 3 + 4 +

G|-----------------------------------------------------------------|
D|-----------------------------------------------------------------|
A|-5---5-5---5-3-3-3-3-3-3-3-3-3-3-0-----0-----1-------------------|
D|-----------------------------------------------------------------|
   1 + 2 + 3 + 4 + 1 + 2 + 3 + 4 + 1 + 2 + 3 + 4 + 1 + 2 + 3 + 4 +

ReTabbed by Dave Vucko
Comments