Avenged Sevenfold - Breaking Their Hold Chords & Tabs

 

Breaking Their Hold Chords & Tabs

Avenged Sevenfold Chords & Tabs

Version: 1 Type: Bass Tab 0 ratings
1 star 2 stars 3 stars 4 stars 5 stars
comments

Breaking Their Hold Bass Tab

   
Band- Avenged Sevenfold
Song- Breaking Their Hold

\=slide down

G|-----------------|
D|-----------------|
A|-----------------|
D|-4~-----------7\-|
The slide is at the very,very end of the intro

G|-------------------------------------|
D|-------------------------------------|
A|-------------------------------------| x4
D|-44442222-00000000-33333333-33333333-|
[ Tab from: http://www.guitartabs.cc/tabs/a/avenged_sevenfold/breaking_their_hold_btab.html ]
G|-----------------------------------32-----------|
D|---------------------------------32-------------|
A|---------------32--------------32---------------|
D|-2---2---2---32--2---2---2---32------77777777-7-|

G|------------------------------|
D|--------------32--------------|
A|-32-32-3-32-32---32-32-3---32-| x3
D|---3--2----3-------3--2--32---|

G|-------------------------------32-|
D|--------------32-------------32---|
A|-32-32-3-32-32---32-32-3---32-----| 
D|---3--2----3-------3--2--32-------|

G|-------32-------32-------32-|
D|-----32-------32-------32---|
A|---32-------32-------32-----|
D|-32-------32-------32-------|
Comments