Avenged Sevenfold - Blinded In Chains Chords & Tabs

 

Blinded In Chains Chords & Tabs

Avenged Sevenfold Chords & Tabs

Version: 1 Type: Tab 0 ratings
1 star 2 stars 3 stars 4 stars 5 stars
comments

Blinded In Chains Tab

Drop D tuning
                                           A7X for life!!

E---------------------------------------------|
B-------Palm Mute-----------------------------|
G---------------------------------------------|
D-0000000--0000000--0000----------------------|
A-0000000--0000000--0000----------------------|Repeat that for a while
D-0000000--0000000--0000----------------------|

E--------------------------------------------|
B---------------13-15-11----15-13-10---13/17-|
G--7-7-7-7-9-10----------12----------10------|
D---7-7--------------------------------------|
A--------------------------------------------|
D--------------------------------------------|

E-------------------------------18-17-18-17--18-17-18-17-------------|
B-18-17-18-17-15-18-17-18-17-15------------18-----------18-----------|
G--------------------------------------------------------------------|
D--------------------------------------------------------------------|
A--------------------------------------------------------------------|
D--------------------------------------------------------------------|

E---17-18-----18-17-----17-15-13h15p13-------|
B-20-----20-15-----18-13--------------17-----|
G--------------------------------------------|
D--------------------------------------------|
A--------------------------------------------|
D--------------------------------------------|

E--------------------------------------------|
B----Palm Mute-------------------------------|
G--------------------------------------------|
D-00-000-000-06666-00-000-000-04444-00-------|
A-00-000-000-06666-00-000-000-04444-00-------|
D-00-000-000-06666-00-000-000-04444-00-------|

B--10^^^ 9^^^ 8^^^ 6^^^--------------------Bend up and down
[ Tab from: http://www.guitartabs.cc/tabs/a/avenged_sevenfold/blinded_in_chains_tab.html ]
E------------------------|----------|-6/8---8/12-13-10-|
B-10----10-8-----6/8-6---|-6/8-10-6-|----8-------------|
G---10-7----9---------7--|----------|-----9------------|
D------------9-----------|----------|------------------|
A-------------10---------|----------|------------------|
D------------------------|----------|------------------|

E--------------------------------------------|
B----------Back to intro---------------------|
G--------------------------------------------|
D-0000000--0000000--0000---------------------|
A-0000000--0000000--0000---------------------|
D-0000000--0000000--0000---------------------|

E---------------------------------------------|
B---------------------------------------------|
G---------------------------------------------|
D-0000000--0000000--0000-8888888-8888888-8888-|
A-0000000--0000000--0000-8888888-8888888-8888-|
D-0000000--0000000--0000-8888888-8888888-8888-|

E--------------------------------------------|
B--------------------------------------------|
G--------------------------------------------|
D-5555555-5555555-5555-3333333-3333333-3333--|
A-5555555-5555555-5555-3333333-3333333-3333--|
D-5555555-5555555-5555-3333333-3333333-3333--|

E-13-12--15/17-15-17-18-17-15/17\12-8-9-8-13\10/18-18-20-18--|
B------15----------------------------------------------------|
G------------------------------------------------------------|
D------------------------------------------------------------|
A------------------------------------------------------------|
D------------------------------------------------------------|

E--17-18-17-15-17-18-17----------------------|
B--------------------------------------------|
G--------------------------------------------|
D--------------------------------------------|
A--------------------------------------------|
D--------------------------------------------|

E--------------------------------------------|all these are just
B--------------------------------------------|random parts of the song
G-----14-14-13-13---13/14--------------------|
D-000-15-15-14-14-0-14/15--------------------|
A-000-------------0--------------------------|
D-000-------------0--------------------------|
Comments