Avenged Sevenfold - Blinded In Chains Chords & Tabs

 

Blinded In Chains Chords & Tabs

Avenged Sevenfold Chords & Tabs

Version: 3 Type: Bass Tab 0 ratings
1 star 2 stars 3 stars 4 stars 5 stars
comments

Blinded In Chains Bass Tab

   
G|---------------------------------------------------------------------------------------|
D|o-------------------------------------------------------------------------------------o|
A|o-------------------------------------------------------------------------------------o|
D|--0-0-0-0-0-0-0---0-0-0-0-0-0-0---0-0-0-0---0-0-0-0-0-0-0---0-0-0-0-0-0-0---0-0-0-0----|
    Tripl Tripl 3 + Tripl Tripl 2 + Tripl 4 + Tripl Tripl 3 + Tripl Tripl 2 + Tripl 4 + 

0:09
G|-----------------------------------------------------------------|
D|-----------------------------------------------------------------|
A|---------------------------------1-1-1---1---1---1---1---1---1---|
D|-0---0---0---0---0---0---0---0-----------------------------------|
   1 + 2 + 3 + 4 + 1 + 2 + 3 + 4 + 1 + 2 + 3 + 4 + 1 + 2 + 3 + 4 +

G|-----------------------------------------------------------------|
D|-----------------------------------------------------------------|
A|---------------------------------3-3-3-3-3-3-3-3-3-3-3-3-3-3-3-3-|
D|-5-5-5---5---5---3---3---3---3-----------------------------------|
   1 + 2 + 3 + 4 + 1 + 2 + 3 + 4 + 1 + 2 + 3 + 4 + 1 + 2 + 3 + 4 +

G|-----------------------------------------------------------------|
D|-----------------------------------------------------------------|
A|---------------------------------1-1-1-1-1-1-1-1-1-1-1-1-1-1-1-1-|
D|-0-0-0-0-0-0-0-0-0-0-0-0-0-0-0-0---------------------------------|
   1 + 2 + 3 + 4 + 1 + 2 + 3 + 4 + 1 + 2 + 3 + 4 + 1 + 2 + 3 + 4 +

G|-----------------------------------------------------------------|
D|-----------------------------------------------------------------|
A|-----5-------5-------3-------3---3-3-3-3-3-3-3-3-3-3-3-3-3-3-3-3-|
D|-5-5---5-5-5---5-3-3---3-3-3---3---------------------------------|
   1 + 2 + 3 + 4 + 1 + 2 + 3 + 4 + 1 + 2 + 3 + 4 + 1 + 2 + 3 + 4 +

Rest

0:34
G|-----------------------------------------------------------------|
D|-----------------------------------------------------------------|
A|-----------------------------------------------------------------|
D|-0-0---0-0-0---0-0-0---0-6-6-6-6-0-0---0-0-0---0-0---------------|
   1 + 2 + 3 + 4 + 1 + 2 + 3 + 4 + 1 + 2 + 3 + 4 + 1 + 2 + 3 + 4 +

G|-----------------------------------------------------------------|
D|-----------------------------------------------------------------|
A|-------------------------1-1-1-1-------------------------1-------|
D|-5-0-0-0-4-0-0-0-5-0-0-0---------5-0-0-0-4-0-0-0-4-1-1-1---4-4-4-|
   1 + 2 + 3 + 4 + 1 + 2 + 3 + 4 + 1 + 2 + 3 + 4 + 1 + 2 + 3 + 4 +

G|-----------------------------------------------------------------|
D|-----------------------------------------------------------------|
A|-------------------------1-1-1-1-------------------------1-------|
D|-5-0-0-0-4-0-0-0-5-0-0-0---------5-0-0-0-4-0-0-0-4---1-1-----4---|
   1 + 2 + 3 + 4 + 1 + 2 + 3 + 4 + 1 + 2 + 3 + 4 + 1 + 2 + 3 + 4 +

Verse 0:49
G|-----------------------------------------------------------------|
D|-----------------------------------------------------------------|
A|-----------------------------------------------------------------|
D|-0-0---0-0-0---0-0-0---0-6-6-6-6-0-0---0-0-0---0-0-0---0-4-4-4-4-|
   1 + 2 + 3 + 4 + 1 + 2 + 3 + 4 + 1 + 2 + 3 + 4 + 1 + 2 + 3 + 4 +

G|-----------------------------------------------------------------|
D|-----------------------------------------------------------------|
A|-----------------------------------------------------------------|
D|-0-0---0-0-0---0-0-0---0-6-6-6-6-0-0---0-0-0---0-0-0---0-444-111-|
   1 + 2 + 3 + 4 + 1 + 2 + 3 + 4 + 1 + 2 + 3 + 4 + 1 + 2 + 3 + 4 +

G|-----------------------------------------------------------------|
D|-----------------------------------------------------------------|
A|-----------------------------------------------------------------|
D|-0-0---0-0-0---0-0-0---0-6-6-6-6-0-0---0-0-0---0-0-0---0-4-4-4-4-|
   1 + 2 + 3 + 4 + 1 + 2 + 3 + 4 + 1 + 2 + 3 + 4 + 1 + 2 + 3 + 4 +

G|-----------------------------------------------------------------|
D|-----------------------------------------------------------------|
A|---------------------------------------------------------111-----|
D|-0-0---0-0-0---0-0-0---0-6-6-6-6-0-0---0-0-0---0-444-111-----444-|
   1 + 2 + 3 + 4 + 1 + 2 + 3 + 4 + 1 + 2 + 3 + 4 + 1 + 2 + 3 + 4 +

Chorus 1:09
G|-----------------------------------------------------------------|
D|-----------------------------------------------------------------|
A|-------------------------------1---1-1---1-1-1-3---3-3-3-3-3-3-3-|
D|-0-6-5-0-3-5---0---6-5-0-3-5-------------------------------------|
   1 + 2 + 3 + 4 + 1 + 2 + 3 + 4 + 1 + 2 + 3 + 4 + 1 + 2 + 3 + 4 +

G|-----------------------------------------------------------------|
D|-----------------------------------------------------------------|
A|-------------------------------1---1-1---1-1-1-3---3-3-7-7-7-7-7-|
D|-0-6-5-0-3-5---0---6-5-0-3-5-------------------------------------|
   1 + 2 + 3 + 4 + 1 + 2 + 3 + 4 + 1 + 2 + 3 + 4 + 1 + 2 + 3 + 4 +

Interlude 1:19
G|-----------------------------------------------------------------|
D|-----------------------------------------------------------------|
A|-5---5---5---5---------------------------------------------------|
D|-----------------2---2---2---2---3-----3---/-8-------------------|
   1 + 2 + 3 + 4 + 1 + 2 + 3 + 4 + 1 + 2 + 3 + 4 + 1 + 2 + 3 + 4 +

G|-----------------------------------------------------------------|
D|-----------------------------------------------------------------|
A|-5-5-5-5-5-5-5-5-----------------0-----0-----1-------------------|
D|-----------------2-2-2-2-2-2-2-2---------------------------------|
   1 + 2 + 3 + 4 + 1 + 2 + 3 + 4 + 1 + 2 + 3 + 4 + 1 + 2 + 3 + 4 +

Verse 1:29
G|-----------------------------------------------------------------|
D|-----------------------------------------------------------------|
A|-----------------------------------------------------------------|
D|-0-0---0-0-0---0-0-0---0-6-6-6-6-0-0---0-0-0---0-0-0---0-4-4-4-4-|
   1 + 2 + 3 + 4 + 1 + 2 + 3 + 4 + 1 + 2 + 3 + 4 + 1 + 2 + 3 + 4 +

G|-----------------------------------------------------------------|
D|-----------------------------------------------------------------|
A|-----------------------------------------------------------------|
D|-0-0---0-0-0---0-0-0---0-6-6-6-6-0-0---0-0-0---0-0-0---0-444-111-|
   1 + 2 + 3 + 4 + 1 + 2 + 3 + 4 + 1 + 2 + 3 + 4 + 1 + 2 + 3 + 4 +

G|-----------------------------------------------------------------|
D|-----------------------------------------------------------------|
A|-----------------------------------------------------------------|
D|-0-0---0-0-0---0-0-0---0-6-6-6-6-0-0---0-0-0---0-0-0---0-4-4-4-4-|
   1 + 2 + 3 + 4 + 1 + 2 + 3 + 4 + 1 + 2 + 3 + 4 + 1 + 2 + 3 + 4 +

G|-----------------------------------------------------------------|
D|-----------------------------------------------------------------|
A|---------------------------------------------------------111-----|
D|-0-0---0-0-0---0-0-0---0-6-6-6-6-0-0---0-0-0---0-444-111-----444-|
   1 + 2 + 3 + 4 + 1 + 2 + 3 + 4 + 1 + 2 + 3 + 4 + 1 + 2 + 3 + 4 +

1:49
G|-----------------------------------------------------------------|
D|-----------------------------------------------------------------|
A|-----------------------------------------------------------------|
D|-0-0---0-0-0---0-0-0---0-6-6-6-6-0-0---0-0-0---0-0-0---0-4-4-4-4-|
   1 + 2 + 3 + 4 + 1 + 2 + 3 + 4 + 1 + 2 + 3 + 4 + 1 + 2 + 3 + 4 +

G|-----------------------------------------------------------------|
D|-----------------------------------------------------------------|
A|-----------------------------------------------------------------|
D|-0-0---0-0-0---0-0-0---0-6-6-6-6-0-0---0-0-0---0-0-0---0-444-111-|
   1 + 2 + 3 + 4 + 1 + 2 + 3 + 4 + 1 + 2 + 3 + 4 + 1 + 2 + 3 + 4 +

Chorus 1:58
G|-------------------------------------------------------------------|
D|o-----------------------------------------------------------------o|
A|o-------------------------------1---1-1---1-1-1-3---3-3-3-3-3-3-3-o|
D|--0-6-5-0-3-5---0---6-5-0-3-5--------------------------------------|
    1 + 2 + 3 + 4 + 1 + 2 + 3 + 4 + 1 + 2 + 3 + 4 + 1 + 2 + 3 + 4 +

2:09
G|-----------------------------------------------------------------|
D|-----------------------------------------------------------------|
A|-----------------------1---1-1-1-0-0-0-0-0-0-0-0-1-0-------0-----|
D|-0-0---3---3---5---5-----------------------------------5-----5-3-|
   1 + 2 + 3 + 4 + 1 + 2 + 3 + 4 + 1 + 2 + 3 + 4 + 1 + 2 + 3 + 4 +

G|-----------------------------------------------------------------|
D|-----------------------------------------------------------------|
A|-------------------------1-1-1-1-0-0-0-0-0-0-0-0-0-0-0-0-0-0-0-0-|
D|-0-0---3---3---5---5---5-----------------------------------------|
   1 + 2 + 3 + 4 + 1 + 2 + 3 + 4 + 1 + 2 + 3 + 4 + 1 + 2 + 3 + 4 +

2:19
G|-------------------------------------------------------------------|
D|o-----------------------------------------------------------------o|
A|o-5---5---5---5---1---1---1---1---0---0---0---0---4---4---4---4---o|
D|-------------------------------------------------------------------|
    1 + 2 + 3 + 4 + 1 + 2 + 3 + 4 + 1 + 2 + 3 + 4 + 1 + 2 + 3 + 4 +

Interlude 2:29
G|------------------------------------------------------------------|
D|o-----------------------------------------------------------------|
A|o-5---5---5---5---------------------------------------------------|
D|------------------2---2---2---2---3-3-3-3---/-8-----8-8-8-8-8-8-8-|
    1 + 2 + 3 + 4 + 1 + 2 + 3 + 4 + 1 + 2 + 3 + 4 + 1 + 2 + 3 + 4 +
[ Tab from: http://www.guitartabs.cc/tabs/a/avenged_sevenfold/blinded_in_chains_btab_ver_3.html ]
G|------------------------------------------------------------------|
D|-----------------------------------------------------------------o|
A|-5-5-5-5-5-5-5-5-----------------0-0-0-0-----1-----0-1-0-1-3-----o|
D|-----------------2-2-2-2-2-2-2-2----------------------------------|
   1 + 2 + 3 + 4 + 1 + 2 + 3 + 4 + 1 + 2 + 3 + 4 + 1 + 2 + 3 + 4 +

2:49
G|---------------------------------------------------------------------------|
D|---------------------------------------------------------------------------|
A|---------------------------------------------------------------------------|
D|-0-0-0-0-0-0-0---0-0-0-0-0-0-0---0-0-0-0-----------------------------------|
   Tripl Tripl 3 + Tripl Tripl 2 + Tripl 4 + 1 + 2 + 3 + 4 + 1 + 2 + 3 + 4 +

Bridge 2:54
G|--------------------------------------------------------------------------------------|
D|o-------------------------------------------------------------------------------------|
A|o-------------------------------------------1-1-1-1-1-1-1---1-1-1-1-1-1-1---1-1-1-1---|
D|--0-0-0-0-0-0-0---0-0-0-0-0-0-0---0-0-0-0---------------------------------------------|
    Tripl Tripl 3 + Tripl Tripl 2 + Tripl 4 + Tripl Tripl 3 + Tripl Tripl 2 + Tripl 4 + 

G|--------------------------------------------------------------------------------------|
D|-------------------------------------------------------------------------------------o|
A|-------------------------------------------------------------------------------------o|
D|-5-5-5-5-5-5-5---5-5-5-3-3-3-3---3-3-3-3---2-2-2-2-2-2-2---2-2-2-2-2-2-2---2-2-2-2----|
   Tripl Tripl 3 + Tripl Tripl 2 + Tripl 4 + Tripl Tripl 3 + Tripl Tripl 2 + Tripl 4 + 

3:13
G|-----------------------------------------------------------------|
D|-----------------------------------------------------------------|
A|---------------------------------1-----------1---5---3---1-------|
D|-0-----------0---0-------0---0-----------------------------------|
   1 + 2 + 3 + 4 + 1 + 2 + 3 + 4 + 1 + 2 + 3 + 4 + 1 + 2 + 3 + 4 +

G|-----------------------------------------------------------------|
D|-----------------------------------------------------------------|
A|-----------------------------------------------------------------|
D|-5---------------3---------------2-------------------------------|
   1 + 2 + 3 + 4 + 1 + 2 + 3 + 4 + 1 + 2 + 3 + 4 + 1 + 2 + 3 + 4 +

3:24
G|------------------------------------------------------------------|
D|o-----------------------------------------------------------------|
A|o---------------------------------1-1-1-1-1-1-1-1-1-1-1-1-1-1-1-1-|
D|--0-0-0-0-0-0-0-0-0-0-0-0-0-0-0-0---------------------------------|
    1 + 2 + 3 + 4 + 1 + 2 + 3 + 4 + 1 + 2 + 3 + 4 + 1 + 2 + 3 + 4 +

G|------------------------------------------------------------------|
D|-----------------------------------------------------------------o|
A|-----5-------5-------3-------3---3-3-3-3-3-3-3-3-3-3-3-3-3-3-3-3-o|
D|-5-5---5-5-5---5-3-3---3-3-3---3----------------------------------|
   1 + 2 + 3 + 4 + 1 + 2 + 3 + 4 + 1 + 2 + 3 + 4 + 1 + 2 + 3 + 4 +

3:43
G|------------------------------------------------------------------|
D|o-----------------------------------------------------------------|
A|o-----------------------------------------------------------------|
D|--0-0-0-0-0-0-0-0-0-0-0-0-0-0-0-0-3-3-3-3-3-3-3-3-4-4-4-4-4-4-4-4-|
    1 + 2 + 3 + 4 + 1 + 2 + 3 + 4 + 1 + 2 + 3 + 4 + 1 + 2 + 3 + 4 +

G|-----------------------------------------------------------------|
D|-----------------------------------------------------------------|
A|---------------------------------1-1-1-1-1-1-1-1-1-1-1-1-1-1-1-1-|
D|-5-5-5-5-5-5-5-5-5-5-5-5-5-5-5-5---------------------------------|
   1 + 2 + 3 + 4 + 1 + 2 + 3 + 4 + 1 + 2 + 3 + 4 + 1 + 2 + 3 + 4 +

G|------------------------------------------------------------------|
D|-----------------------------------------------------------------o|
A|-4-1-1-1-1-1-1-1-4---3---1-1-3-1-----------------0-0-0-0-4-4-4-4-o|
D|---------------------------------3-3-3-3-3-3-3-3------------------|
   1 + 2 + 3 + 4 + 1 + 2 + 3 + 4 + 1 + 2 + 3 + 4 + 1 + 2 + 3 + 4 +

4:14
G|-------------------------------------------------------------------------------------------------|
D|-------------------------------------------------------------------------------------------------|
A|-------------------------------1---1-1---1---1-3---3-3-3-3-3-3-3-1-1-1-1-1-1-1-0-0-0-0-4-4-4-4-4-|
D|-0-r---------------------------------------5-----------------------------------------------------|
   1 + 2 + 3 + 4 + 1 + 2 + 3 + 4 + 1 + 2 + 3 + 4 + 1 + 2 + 3 + 4 + 1 + 2 + 3 + 4 + 1 + 2 + 3 + 4 +

Chorus 4:22
G|-------------------------------------------------------------------|
D|o-----------------------------------------------------------------o|
A|o-------------------------------1---1-1---1---1-3---3-3-3-3-3-3-3-o|
D|--0-6-5-0-3-5---0---6-5-0-3-5---------------5----------------------|
    1 + 2 + 3 + 4 + 1 + 2 + 3 + 4 + 1 + 2 + 3 + 4 + 1 + 2 + 3 + 4 +

4:31
G|-----------------------------------------------------------------|
D|-----------------------------------------------------------------|
A|-----------------------1---1-1-1-0-0-0-0-0-0-0-0-1-0-------0-----|
D|-0-0---3---3---5---5-----------------------------------5-----5-3-|
   1 + 2 + 3 + 4 + 1 + 2 + 3 + 4 + 1 + 2 + 3 + 4 + 1 + 2 + 3 + 4 +

G|-----------------------------------------------------------------|
D|-----------------------------------------------------------------|
A|-----------------------1---1-1-1-0-0-0-0-0-0-0-0-0-0-0-0-0-0-0-0-|
D|-0-0---3---3---5---5---------------------------------------------|
   1 + 2 + 3 + 4 + 1 + 2 + 3 + 4 + 1 + 2 + 3 + 4 + 1 + 2 + 3 + 4 +

4:41
G|-----------------------------------------------------------------------|
D|-7-8-7----7--------7-8-7----7--------7--------7--------------2-5-3-2-5-|
A|-------10---10-8-7-------10---10-8-7---10-8-7---10-8-7-3-0-3-----------|
D|-----------------------------------------------------------------------|
   1 + 2 +  3 +  4 + 1 + 2 +  3 +  4 + 1 +  2 + 3 +  4 + 1 + 2 + 3 + 4 +

G|---------------------------------------------------------|
D|---------------------------------------------------------|
A|-5-----555-----------------------------------------------|
D|-----------------0---------------------------------------|
   1 + 2 + 3 + 4 + 1 + 2 + 3 + 4 + 1 + 2 + 3 + 4 + 1 + 2 + 

4:51 Bass Solo + Outro
G|-------------------------------------------------------------------|
D|o---------------------3---3---------------------------------------o|
A|o-5-----------------5---5---5---5-5---------------5-------4-------o|x3
D|----0-3-5-6-5-3-0-6-----------6-----0-3-5-6-5-3-0---3-3-3---2-2-2--|
    1 + 2 + 3 + 4 + 1 + 2 + 3 + 4 + 1 + 2 + 3 + 4 + 1 + 2 + 3 + 4 +

G|-----------------------------------------------------------------|
D|---------------------3---3---------------------------------------|
A|-5-----------------5---5---5---5-5-------------------------------|
D|---0-3-5-6-5-3-0-6-----------6-----0-3-5-6-5-3-0-3-3-3-3-2-2-2-2-|
   1 + 2 + 3 + 4 + 1 + 2 + 3 + 4 + 1 + 2 + 3 + 4 + 1 + 2 + 3 + 4 +

G|-----------------------------------------------------------------|
D|---------------------3---3---------------------------------------|
A|-5-----------------5---5---5---5-5---------------5-------4-------|
D|---0-3-5-6-5-3-0-6-----------6-----0-3-5-6-5-3-0---3-3-3---2-2-2-|
   1 + 2 + 3 + 4 + 1 + 2 + 3 + 4 + 1 + 2 + 3 + 4 + 1 + 2 + 3 + 4 +

5:23
G|-----------------------------------------------------------------|
D|-----------------------------------------------------------------|
A|-----------------------------------------------------------------|
D|-0---------------------------------------------------------------|
   1 + 2 + 3 + 4 + 1 + 2 + 3 + 4 + 1 + 2 + 3 + 4 + 1 + 2 + 3 + 4 +

G|-----------------------------------------------------------------|
D|-----------------------------------------------------------------|
A|-0---------------------------------------------------------------|
D|-----------------------------------------------------------------|
   1 + 2 + 3 + 4 + 1 + 2 + 3 + 4 + 1 + 2 + 3 + 4 + 1 + 2 + 3 + 4 +

G|-----------------------------------------------------------------|
D|-----------------------------------------------------------------|
A|-1---------------------------------------------------------------|
D|-----------------------------------------------------------------|
   1 + 2 + 3 + 4 + 1 + 2 + 3 + 4 + 1 + 2 + 3 + 4 + 1 + 2 + 3 + 4 +

G|---------------------------------|
D|---------------------------------|
A|-5-5-5-5-5-5-5-5-7-7-7-7-7-7-7-7-|
D|---------------------------------|
   1 + 2 + 3 + 4 + 1 + 2 + 3 + 4 + 

5:45
G|-------------------------------------------------------------------|
D|o---------------------3---3---------------------------------------o|
A|o-5-----------------5---5---5---5-5---------------5-------4-------o|x3
D|----0-3-5-6-5-3-0-6-----------6-----0-3-5-6-5-3-0---3-3-3---2-2-2--|
    1 + 2 + 3 + 4 + 1 + 2 + 3 + 4 + 1 + 2 + 3 + 4 + 1 + 2 + 3 + 4 +

G|-----------------------------------------------------------------|
D|---------------------3---3---------------------------------------|
A|-5-----------------5---5---5---5-5-------------------------------|
D|---0-3-5-6-5-3-0-6-----------6-----0-3-5-6-5-3-0-3-3-3-3-2-2-2-2-|
   1 + 2 + 3 + 4 + 1 + 2 + 3 + 4 + 1 + 2 + 3 + 4 + 1 + 2 + 3 + 4 +

G|-----------------------------------------------------------------|
D|---------------------3---3---------------------------------------|
A|-5-----------------5---5---5---5-5---------------5-------4-------|
D|---0-3-5-6-5-3-0-6-----------6-----0-3-5-6-5-3-0---3-3-3---2-2-2-|
   1 + 2 + 3 + 4 + 1 + 2 + 3 + 4 + 1 + 2 + 3 + 4 + 1 + 2 + 3 + 4 +

G|-------------------------------------------------------------------|
D|o---------------------3---3---------------------------------------o|
A|o-5-----------------5---5---5---5-5-------------------------------o|
D|----0-3-5-6-5-3-0-6-----------6-----0-3-5-6-5-3-0-3-3-3-3-2-2-2-2--|
    1 + 2 + 3 + 4 + 1 + 2 + 3 + 4 + 1 + 2 + 3 + 4 + 1 + 2 + 3 + 4 +

ReTabbed by Dave Vucko
Comments