Avenged Sevenfold - And All Things Will End Chords & Tabs

 

And All Things Will End Chords & Tabs

Avenged Sevenfold Chords & Tabs

Version: 1 Type: Tab 1 rating
1 star 2 stars 3 stars 4 stars 5 stars
comments

And All Things Will End Tab

   
Drop D

|----------------------------------------------------------|
|----------------------------------------------------------|
|-----0-2-0---2------0-0h2-0-----------0-0h2-0-------------|
|---3-------3------2----------2-----2-3---------3-2--------|
|-5--------------3--------------3-1------------------------|
|----------------------------------------------------------|

|--------------------------------------------|
|----------2---------------------------------|
|-----3----3---------------------------------|
|---2---2--0---------------------------------|
|-0------------------------------------------|
|--------------------------------------------|

|---------------------------------------------------|
|-------------------------------5-6-----------gtr.2-|
|-------------------------------6-7-----------gtr.1-|
|-0-------------------------------------------------| repeat
|-0-------------------------------------------------|
|-0-0-0-0-0-0-0-0-0-0-0-0-0-0-----------------------|

|------------------------------------------------------|
|------------------------------------------------------|
|------------------------6h7-6-------------------gtr.1-|
|-8-7---7--------------5-------------------------------|
|-----10--10-8-7-5-7-8---------------------------------|
|------------------------------------------------------|
                                                   b 2ndx
|---------------------------------------------------|
|-----------------------------------8---------------|
|-7-5--5-----------------9h10-9---------------gtr.2-|
|-----8--8-7-5---7-8-10-----------------------------|
|--------------10-----------------------------------|
|---------------------------------------------------|

|----------------------------------------------|
|----------------------------------------------|
|----------------------------------------------|
|-0--------------------------------------------|
|-0--------------------------------------------|
|-0-0-0-0-0-0-0-0-0-0-0-0-0-0-0----------------|

|----------------------------------------------|
|----------------------------------------------|
|----------------------------------------------|
|-3--------------------------------------------|
|-3--------------------------------------------|
|-3-3-3-3-3-3-3-3-3-33-3-3-3-3-3---------------|

|--------------------------------------------------|
|--------------------------------------------------|repeat
|--------------------------------------------------|from ?
|-5------------6----------5-6-0--------------------|
|-5------------6----------5-6-0--------------------|
|-5-5-5-5-5-5-6--6-6-6-6-5-6-0---------------------|
                       b 1/2                   b 1/2
chrorus thing
|-----------------17------------------------------------|
|----18----17----------15-17p15----17----18----- gtr. 1-|
|-17----14----14----17----------17----14----------------|
|-------------------------------------------------------|
|-------------------------------------------------------|
|-------------------------------------------------------|

|------------------------------------17----------------|
|----17----18----17----18----17------------------------|
|-15----14----15----17----14----14------17------ gtr.1-|
|---------------------------------------------0--------|cont.
|---------------------------------------------0--------|
|---------------------------------------------0--------|
chorus                                   do this second ending
|-------------------------------------------------------|
|-------------------------------------------------------|
|-3-----------------------------------------------gtr.2-|
|-3---3---0--------------------3--5-5---0---------------|
|-1---3---0--------------------3--5-5---0---------------|
|-----3---0-0-0-0-0-0-0-0-0---3--5-5---0----------------|
slow part thing
|-------------------------------------------------------|
|-------------------------------------------------------|
|-----0-2-0---2-----0-0h2-0----------------------6------|
|---3-------3-----2----------2---2--s--5-8---7----------|
|-5-------------3--------------3---3-7-----7---7--------|
|-------------------------------------------------------|

|----------------------------------------------------------|
|-6---5---8p5-6p5-6--------1-------------------------------|
|-------------------------3---3--------------7-------------|
|---7---7--------------3--------3------5-5h6----6-5p0------|
|--------------------1---------------0---------------------|
|----------------------------------6-----------------------|
[ Tab from: http://www.guitartabs.cc/tabs/a/avenged_sevenfold/and_all_things_will_end_tab.html ]
|---------------------------------------------------------|
|-----------------------------2---------------------------|
|-----2-2h3-2-----------2-3---3---------------------gtr.1-|
|---2---------2---2---2-------0---------------------2-----|nd x
|-0-------------0---0-------------------------------------|
|---------------------------------------------------------|
                                           over guitar one from slow 2x
|-------5------5------3-3-5-3-----------------------------|
|---6-8---8-6--6----5---------5----5----------------------|
|-7------------7--5--------------5----5/9-----------------|
|---------------------------------------------------------|
|---------------------------------------------------------|
|---------------------------------------------------------|

|---------------9---------------------------------------|
|-8-11----10---------10----8-10p8---10------------------|
|-------9-----9---10-----9---------9----10--------------|
|-------------------------------------------------------|
|-------------------------------------------------------|
|-------------------------------------------------------|

|---------8------------------------10---------------------|
|------11---11-------------9---8h9-----9-8----------------|
|---10---------10----10------9----------------------------|
|-8----------------8-----8--------------------------------|
|---------------------------------------------------------|
|---------------------------------------------------------|

|-----------------------------------9-----------------------|
|-----10-10h11-10------------10-11-11-----------------------|
|---9--------------9---9---9--------------------------gtr.2-|
|-7------------------7---7----------------------------------|
|-----------------------------------------------------------|
|-----------------------------------------------------------|
solo part over slow stuff
|------------12--12h13----------------------------------|
|-13--10-13-----------13--------------------------------|
|--------------------------12--10-9---------------------|
|--------------------------14--12-10-------12-----------|
|-------------------------------------------13----------|
|-------------------------------------------------------|

|---------h--p--10--10-8------------------------------|
|-10-10-8-10-8-----------11------14-14/17-------------|
|-10-10-9-10-9--------------9-10----------------------|
|-----------------------------------------------------|
|-----------------------------------------------------|
|-----------------------------------------------------|
distorted part  do a few times
|--------------------------------------------------------|
|--------------------------------8---8p6-10--------------|
|---------------------------7-9---9---------------------|
|--------------------------------------------------------|
|-----5--------5--------5--------------------------------|
|-0-0---5-0-0----6-0-0---7-------------------------------|

didn't do the little solo part over that not too hard too lazy to tab it.

|-----------------------------------------------------|
|-----------------------------------------------------|
|-----------------------------6h7-6-------------------|
|-0---------------------------------------------------|
|-0---------------------------------------------------|
|-0-0-0-0-0-0-0-0-0-0-0-0-0---------------------------|

|------------------------------------------------------|
|------------------------------------------------------|
|------------------------6h7-6-------------------gtr.1-|
|-8-7---7--------------5-------------------------------|
|-----10--10-8-7-5-7-8---------------------------------|
|------------------------------------------------------|

|---------------------------------------------------|
|---------------------------------------------------|
|-7-5--5-----------------9h10-9---------------gtr.2-|
|-----8--8-7-5---7-8-10-----------------------------|
|--------------10-----------------------------------|
|---------------------------------------------------|
rad little harmony part    gtr.1
|----------------------------------------------------------|
|----------------------------------------------------------|
|----------------------------------------------------------|
|-------7-7-7-5-5-5-7-7-7--------7-7-7-10-10-10-7-7-7------|
|-5-5-5--------------------8-8-8---------------------------|
|----------------------------------------------------------|

|-----------------------------------------------------------|
|-----------------------------------------------------------|
|-----------------------------------------------------------|
|--------5-5-5-3-3-3-2-2-2-------3-3-3-------2-2-2----------|
|-3-3-3---------------------1-1-1-------0-0-0---------------|
|-----------------------------------------------------------|
gtr.2 for rad harmony part
|------------------------------------------------------------|
|------------------------------------------------------------|
|------------------------------------------------------------|
|--------10-10-10-8-8-8-10-10-10---------10-10-10------------|
|-8-8-8---------------------------12-12-12-------------------|
|------------------------------------------------------------|

|---------------------------------------------------------|
|---------------------------------------------------------|
|-10-10-10------------------------------------------------|
|-----------10-10-10--------8-8-8-7-7-7-------------------|
|---------------------7-7-7--------------10-10-10---------|
|---------------------------------------------------------|

|-------------------------------------------------|
|-------------------------------------------------|
|-------------------------------------------------|
|--------7-7-7--------5-5-5-----------------------|
|-5-5-5--------4-4-4------------------------------|
|-------------------------------------------------|
Comments