Avenged Sevenfold - An Epic Of Time Wasted Chords & Tabs

 

An Epic Of Time Wasted Chords & Tabs

Avenged Sevenfold Chords & Tabs

Version: 1 Type: Bass Tab 0 ratings
1 star 2 stars 3 stars 4 stars 5 stars
comments

An Epic Of Time Wasted Bass Tab

   
Song: An Epic of Time Wasted
Artist: Avenged sevenfold
Album: Sounding the Seventh Trumpet

Standard Tuning

Intro

While Electric Guitars play top two once open from
 /-------Here------to---here-\
|---------------------------------|--\
|---------------------------------|  | Repeat 4x
|------7--------------------------|  |
|---0----6-5-0-3-5-6-5-3-0-3-5-00-|--/

Riff A
|-------------------------------------------------------|--\
|-------------------------------------------------------|  | Repeat4x
|-------5/7-------------0--------5/7-------------0-2----|  |  wait then do it
|--0-00-----0-2-3-0-2-3---1-0-00-----0-2-3-0-2-3-----0--|--/  again


The Thing after riff A before the scale
|-----------------------------------------------|
|-----------------------------------------------|
|-----------------------------------------------|
|---0-0-1-0--0-0-1-0--0-0-1-0--0----------------|
[ Tab from: http://www.guitartabs.cc/tabs/a/avenged_sevenfold/an_epic_of_time_wasted_btab.html ]
Riff B                     
|-------------------------------------------------------------------|        
|-------------------------------------------------------------------|
|-------------------------------------------------------------------|        
|---55555555--77777777--99999999-----12---11------9-7-5-3--33333333-|
    Never!    stopped!  To Think!     That you
|---------------------|
|---------------------| Wait again for another scale
|---------------------|                    
|-55555555--22222222--|

Riff C
Dont know  

Riff D               9 and 7                 5 and 4                2 and 4
|---------------------------------------------------------------------------|
|---------------------------------------------------------------------------|
|---------------------------------------------------------------------------|
|---9-9-9-9-9---9-9-9-9-97---5-5-5-5-5---5-5-5-5-54---2-2-2-2-2---2-2-2-2-24|

|-------------------------------|
|-------------------------------|
|-------------------------------|
|---7-7-7-7-7--7---9-9-9-9-9--9-|

Thats all for this Tab I will try to figure out some more
Comments