Avenged Sevenfold - Almost Easy Chords & Tabs

 

Avenged Sevenfold Chords & Tabs

Version: 7 Type: Tab 0 ratings
1 star 2 stars 3 stars 4 stars 5 stars
comments

Almost Easy Tab

   
Tuning: drop D tuning down one half step
                                                    
eb|---------------------------------------------13-16-17b17.5-/-22------|
Bb|13b14(14)(14)~~~r13-10---------------------15------------------------|
Gb|----------------------12b13(13)~~~XX-----14--------------------------|
Db|---------------------------------------15----------------------------|
Ab|-------------------------------------17------------------------------|
Db|---------------------------------------------------------------------|

eb|22-17---------------------17-18-17-13--------------------------------|
Bb|-----18------------------------------15--18b19(19)~~-----------------|
Gb|-------19------------------------------14----------------------------|
Db|---------19-18-19b20(20)~~-------------------------------------------|
Ab|---------------------------------------------------------------------|
Db|---------------------------------------------------------------------|

eb|---------------------------------------------------------------------|
Bb|17-18-17-13----15b16(16)r15b16.5(16.5)(16.5)\------------------------|
Gb|-----------14--------------------------------------------------------|
Db|-------------15------------------------------------------------------|
Ab|---------------------------------------------------------------------|
Db|---------------------------------------------------------------------|

eb|17-13----------------------------------10-12/18----------------------|
Bb|-----17-13\10-13---------------------10------------------------------|
Gb|----------------10b11(11)(11)~~-----9--------------------------------|
Db|----------------------------------12---------------------------------|
Ab|--------------------------------13-----------------------------------|
Db|---------------------------------------------------------------------|
[ Tab from: http://www.guitartabs.cc/tabs/a/avenged_sevenfold/almost_easy_tab_ver_7.html ]
eb|---------------------------------------------------------------------|
Bb|-------------------------------------------------15/22(22)(22)~~\----|
Gb|5/7-(7)-(7)-\------------------------------0-7/14--------------------|
Db|-------------5/7---7/14\12-12/19(19)(19)~~\--------------------------|
Ab|---------------------------------------------------------------------|
Db|---------------------------------------------------------------------|

eb|---------------------------------------------------------------------|
Bb|-10b10.5(10.5)r10------------10b10.5(10.5)r10------------------------|
Gb|7----------------7-(7)~~~\-------------------7(7)(7)~~~\-------------|
Db|--------------------------5/7---------------------------5/7-9/14-12--|
Ab|---------------------------------------------------------------------|
Db|---------------------------------------------------------------------|

eb|---------------------------------------------------------------------|
Bb|---------------------------15/23-23-22(22)~~-------------------------|
Gb|--------------------0-7/14------------------19(19)(19)~~~\-----------|
Db|12/19-22(22)(22)~~~\-------------------------------------------------|
Ab|---------------------------------------------------------------------|
Db|---------------------------------------------------------------------|

   This part is all picked, but you can use a series of pull-offs if needed

eb|181715------1713----2017---------------------------------------------|
Bb|------181715----1715----20172018-17\15-------------------------------|
Gb|--------------------------------------171514-15p14-------------------|
Db|--------------------------------------------------1715p14\12(12)~~~--|
Ab|---------------------------------------------------------------------|
Db|---------------------------------------------------------------------|

| /  Slide up
| \  Slide down
| b  Bend
| r  Release
| h  Hammer-on
| p  Pull-off
| ~  Vibrato
| *  Harmonic
| x  Mute note
|(7) Ghost note (Don't play, let ring)
Comments