Avenged Sevenfold - Almost Easy Chords & Tabs

 

Avenged Sevenfold Chords & Tabs

Version: 2 Type: Tab 0 ratings
1 star 2 stars 3 stars 4 stars 5 stars
comments

Almost Easy Tab

*UPDATED*

This guitar tab is in dropped d and a half
(But im figuring it out on a stantard guitar so if theres something wrong
move it down a fret) or listen to its live version

Intro

piano part
|----------------------|
|-------------15-------|
|-14h15p14-14----15-14-|  x 8
|----------------------|
|----------------------|
|----------------------|

backup guitar
|----------------------------------|
|----------------------------------|
|-7-----5-----------3----5---------|   x2 strum up and down
|-7-x15-5-x15-5-----3-x4-5-x4------|
|-5-----3-----5-x15-1----3---------|
|-------------5--------------------|

Intro lead
                  use whammy bar          whammy bar here
                   |                      |
                   |                      |
|---------------------------------------17vv(15)------|
|-/18-17---------15vv(13)--/18-17---------------------|
|-------17--14--------------------17--14--------------|
|-----------------------------------------------------|
|-----------------------------------------------------|
|-----------------------------------------------------|

|-------------------------------------/18--17~-----------|
|-/18-17--------15vv(13)vv(18)--/18-17-------------------|
|--------17--14------------------------------------------|
|--------------------------------------------------------|
|--------------------------------------------------------|
|--------------------------------------------------------|


pre-verse
|------------------------------------------------------|
|------------------------------------------------------|
|------------------------------------------------------|  x2
|-7\----------8\6-6\3-6/7------------------------------|
|-5\0-0-0-0-0-6\4-4\1-4/7-0-0-0-0-0--------------------|
|---0-0-0-0-0----0---0----0-0-0-0-0---0000-7~-0000-8~--|
p.m . . . . .    .   .    . . . . .   ....    ....


1st part of Verse
|---------------------------------------------------------|
|---------------------------------------------------------|
|---------------------------------------------------------|   x2
|-0~------------0~------------0~------------0~----5h6-5---|
|-0~0-0-0-0-0-0-0~0-0-0-0-0-0-0~0-0-0-0-0-0-0~0-0-5h6-5---|
|-0~0-0-0-0-0-0-0~0-0-0-0-0-0-0~0-0-0-0-0-0-0~0-0-5h6-5---|
pm  . . . . . .   . . . . . .   . . . . . .   . .


2nd part of verse
after second time they speed up a little
|--------------------------------------------------------|
|--------------------------------------------------------|
|--------------------------------------------------------|
|-0~------------0~------------0~------------0~----5h6-5--| x1
|-0~000-000-000-0~000-000-000-0~000-000-000-0~0-0-5h6-5--|
|-0~000-000-000-0~000-000-000-0~000-000-000-0~0-0-5h6-5--|
pm  ... ... ...   ... ... ...   ... ... ...   . .

then 1st pt.verse x 1

pre-chorus
|----------------------------------------------|
|----------------------------------------------|
|-7-7-xx-5-5-xx-3-3-xx-3--xx--5-xx-5-5-xx-6-6--|
|-7-7-xx-5-5-xx-3-3-xx-3--xx--5-xx-5-5-xx-6-6--| x2
|-5-5-xx-3-3-xx-1-1-xx-1--xx--3-xx-3-3-xx-4-4--|
|----------------------------------------------|

chorus
|---------------------------------              |--------|
|---------------------------------              |--------|
|---------------------------------  x2 then     |--------|
|-3~-3~-3~-3-3-3--0~-0~-0~-0-0-0------          |-5h6-5--|
|-3~-3~-3~-3-3-3--0~-0~-0~-0-0-0------          |-5h6-5--|
|-3~-3~-3~-3-3-3--0~-0~-0~-0-0-0------          |-5h6-5--|

1st and 2nd part of verse x 1

prechorus x1

chorus x4

pre-verse x 2

SOlO!                   sweep ^---------              v-----------
[ Tab from: http://www.guitartabs.cc/tabs/a/avenged_sevenfold/almost_easy_tab_ver_2.html ]
|--------------------------------------13-17b18~--/21-17-----------------|
|-13b15-13b15~11--------------------15-------------------17--------------|
|----------------13b14-13b14------15-------------------------18----------|
|-------------------------------15-------------------------------19~-----|
|-----------------------------17-----------------------------------------|
|------------------------------------------------------------------------|

|-17-18-17-15--------------------------------------------------------------|
|-------------18-15-18b20~--17-18-17-15-13-15b17-15b17~--------------------|
|--------------------------------------------------------------------------|
|--------------------------------------------------------------------------|
|--------------------------------------------------------------------------|
|--------------------------------------------------------------------------|
     v----------              ^--------------------------------------------|
|-17-13-----------------------------13-17~-18~-17~-------------------------|
|-------15------------------------15---------------------------------------|
|----------14-------------------14-----------------------------------------|
|-------------15-14-12~-12-14-15-------------------------------------------|
|--------------------------------------------------------------------------|
|--------------------------------------------------------------------------|

|--------------------------/17~----------------------------------------|
|-----------------------------------9b10(9)-------9b10(9)--------------|
|-/7~-----------------7---------/7----------7~-------------7~----------|
|-----7/14\7/19~~--/7---7----------------------/7----------------------|
|----------------------------------------------------------------------|
|----------------------------------------------------------------------|

|--------------------/18-17-------------|
|--------------------------15~~---------|
|---------/17~----7---------------------|
|-/7/14\7------/7-----------------------|
|---------------------------------------|
|---------------------------------------|

heres fast part( 90% sure its right/all numbers are double digits)
|-181715------1715------211817-----------------------------|
|-------181715----181715------181715-----------------------|
|------------------------------------171514----------------|
|-------------------------------------------171514--12~~---|
|----------------------------------------------------------|
|----------------------------------------------------------|

back up guitar
|-------------------------------------------------------------|
|-------------------------------------------------------------|
|-------------------------------------------------------------|  x 2
|-7------0-----------7------0-----------0-3-5-6-6~-0-3-5-6-6~-|
|-5------0-----------5------0-----------0-3-5-6-6~-0-3-5-6-6~-|
|---0000-0-00000000----0000-0-00000000--0-3-5-6-6~-0-3-5-6-6~-|
pm  ....   ........    ....   ........

|----------------------------------|
|----------------------------------|
|-7-----5-----------3----5---------|   x2 strum up and down
|-7-x15-5-x15-5-----3-x4-5-x4------|
|-5-----3-----5-x15-1----3---------|
|-------------5--------------------|

bridge
|--------------------------------------------------------------|
|--------------------------------------------------------------|
|-------5--2--3--10--------------------------------------------|
|-0--3--5--2--3--10-10--x strum each note 6 times--------------|
|-0--3--3--0--1--8--10-----------------------------------------|
|-0--3--------------10-----------------------------------------|

|---------------------------------------|
|---------------------------------------|
|---------------------------------------|
|-7--x 12---8---x 9---8/10-10~----------|
|-7---------8---------8/10-10~----------|
|-7---------8---------8/10-10~----------|

then prechorus x2 with just mid distorion

then chorus x 4

then preverse x 2

end with

|--------|
|--------|
|--------|
|-5h6-5~-|
|-5h6-5~-|
|-5h6-5~-|

please rate!!!
Comments