Avenged Sevenfold - Almost Easy Chords & Tabs

 

Avenged Sevenfold Chords & Tabs

Version: 1 Type: Bass Tab 0 ratings
1 star 2 stars 3 stars 4 stars 5 stars
comments

Almost Easy Bass Tab

Tuning= Drop d

By Tayler Curtis

x2 
G---------------------------------------------------------|
D---------------------------------------------------------|
A----4444-44444--2222-22222--------------0000--2222-------|
D----------------------------4444-44444-------------------|


G---------------------------------------------------------|
D---------------------------------------6-----6-----------|
A---444444--5--3-33--00--3-4-44444--44----44--------------|
D---------------------------------------------------------|


G---------------------------------------------------------|
D---------------------------------------6-----6-6676------|
A---444444--5--3-33--00--3-4-44444--44----44--------------|
D---------------------------------------------------------|

x2
G---------------------------------------------------------|
D---------------------------------6-6676------------------|
A----4--44444--4--44444--4-44444--------------------------|
D---------------------------------------------------------|

x2
G---------------------------------------------------------|
D--------------------------------------6-6676-------------|
A---4--4444444--4--4444444--4-4444444---------------------|
D---------------------------------------------------------|


G---------------------------------------------------------|
D---------------------------------------------------------|
A---44-22-00-00-0222-33-44-22-00-22-3---------------------|
D---------------------------------------------------------|


G---------------------------------------------------------|
D---------------------------------------------------------|
A---7-77-77-7777-77-77-7-666-4-44-44-44444-444-44-44444---|
D---------------------------------------------------------|


x2
G---------------------------------------------------------|
D---------------------------------6-6676------------------|
A----4--44444--4--44444--4-44444--------------------------|
D---------------------------------------------------------|

x2
G---------------------------------------------------------|
D---------------------------------------------------------|
A---4--4444444--4--4444444--4-4444444--6-6676-------------|
D---------------------------------------------------------|

[ Tab from: http://www.guitartabs.cc/tabs/a/avenged_sevenfold/almost_easy_btab.html ]
G---------------------------------------------------------|
D---------------------------------------------------------|
A---44-22-00-00-0222-33-44-22-00-22-3---------------------|
D---------------------------------------------------------|

x2
G---------------------------------------------------------|
D---------------------------------------------------------|
A---7-77-77-7777-77-77-7-666-4-44-44-44444-444-44-44444---|
D---------------------------------------------------------|


G---------------------------------------------------------|
D---------------------------------------6-----6-----------|
A---444444--5--3-33--00--3-4-44444--44----44--------------|
D---------------------------------------------------------|


G---------------------------------------------------------|
D---------------------------------------6-----6-6676------|
A---444444--5--3-33--00--3-4-44444--44----44--------------|
D---------------------------------------------------------|

x2
G---------------------------------------------------------|
D----------------2-4-5---2-4-5----------------------------|
A--44-44-44-44-4-------4----------------------------------|
D---------------------------------------------------------|

x2
G---------------------------------------------------------|
D---------------------------------------------------------|
A---4444-44-44444-2222-22-22222---------------0000-00-2222|
D-------------------------------4444-44-444444------------|

x2
G---------------------------------------------------------|
D---------------------------------------------------------|
A--4-44444444-2-22222222-------------000000-222222--------|
D------------------------4-444444444----------------------|


G---------------------------------------------------------|
D---------------------------------------------------------|
A---4--4444444--4--4444444--4-4444444--6-6676-------------|
D---------------------------------------------------------|

x2
G---------------------------------------------------------|
D---------------------------------------------------------|
A---7-77-77-7777-77-77-7-666-4-44-44-44444-444-44-44444---|
D---------------------------------------------------------|


G---------------------------------------------------------|
D---------------------------------------6-----6-----------|
A---444444--5--3-33--00--3-4-44444--44----44--------------|
D---------------------------------------------------------|
Comments