Avenged Sevenfold - Afterlife Chords & Tabs

 

Avenged Sevenfold Chords & Tabs

Version: 4 Type: Tab 0 ratings
1 star 2 stars 3 stars 4 stars 5 stars
comments

Afterlife Tab

   
I'm sorry but I won't tab the solo. I hope you don't blame me. And I only have one 
for the intro. Figure the rythm out for yourself. I don't have the time to do it. Yeah. A7X 
LIFE!

Guitar 1 - Synyster
Guitar 2 - Zacky

Tuning: Drop D   DADGBe
Tabbed by: Max


Intro after strings: GTR 2

e|------------------------10----------12-10-12b^13>12-15--|
B|-8-10-13--10-8-10--8-10-----10-8-10---------------------|
G|--------------------------------------------------------|
D|--------------------------------------------------------|
A|--------------------------------------------------------|
D|--------------------------------------------------------|

e|-15-17-15-13-----15-17-15-13-----15-17-15-13------------| This part only
B|-------------15--------------15-------------------------|  <-- X2
G|--------------------------------------------------------|
D|--------------------------------------------------------|
A|--------------------------------------------------------|
D|--------------------------------------------------------|

e|-20-22-20-18-----20-22-20-18------20-22-20-18-----------|
B|-------------20--------------20-------------------------|
G|--------------------------------------------------------|
D|--------------------------------------------------------|
A|--------------------------------------------------------|
D|--------------------------------------------------------|

e|-20-22-20-18-----20-22-20-18------22b^------------------|
B|-------------20--------------20-------------------------|
G|--------------------------------------------------------|
D|--------------------------------------------------------|
A|--------------------------------------------------------|
D|--------------------------------------------------------|


Verse  (Both guitars)

e|-----------------------------------------------------------|
B|-----------------------------------------------------------|
G|-----------------------------------------------------------|
D|----------------------0--0-0-----------------0--0-0--3-5-6-|
A|--5h8p5--5h8p5--------0--0-0--5h8p5--5h8p5---0--0-0--3-5-6-|
D|-------6-------6------0--0-0-------6------6--0--0-0--3-5-6-|

Last time after main verse riff

D|-3--5--6-6--5--3-|
A|-3--5--6-6--5--3-|
D|-3--5--6-6--5--3-|

After bass plays. Figure out strumming
(Gtr. 1)

e|-----------------------------------------|
B|-----------------------------------------|
G|-5--9-10--12--------------5--12--14--15--|
D|-x--x--x---x--bass plays--x---x---x---x--|
A|-3--7--8--10--------------3--10--12--13--|
D|-----------------------------------------|

(Gtr. 2)
e|------------------|
B|------------------|
G|-5--------------5-|
D|-5--bass plays--5-|
A|-3--------------3-|
D|------------------|

Riff after bass plays 3 times by itself (ALL HAMMER ONS AND PULL OFFS!)

e|--------------------------------|
B|--------------------------------|
G|--------------------------------|
D|--------------------------------|
A|--------------------------------|
D|-0-8-0-7-0-5-0-10-0-8-0-7-0-8-0-|

(Gtr 1 & 2 after this part ^^^)
e|------------|
B|------------|
G|-5--3--5--7-|
D|-5--3--5--6-|
A|-3--1--3--4-|
D|------------|
[ Tab from: http://www.guitartabs.cc/tabs/a/avenged_sevenfold/afterlife_tab_ver_4.html ]
Pre-Chorus (Gtr. 1 & 2) Listen to the rythm here. These are the chords.
e|---------------------|
B|---------------------|
G|---------------------|
D|---------------------|
A|-0--3--8--10--0--15--|
D|-0--3--8--10--0--15--|


Chorus (Gtr. 1)
e|-----------------|
B|-----------------|
G|-14--17--19--15--|
D|--x---x---x---x--|
A|-12--15--17--13--|
D|-----------------|

(Gtr. 2)
e|-------------|
B|-------------|
G|----5--7--3--|
D|-3--5--7--3--|
A|-3--3--5--1--|
D|-3-----0-----|

Verse x4
Riff after verse x4
Pre-Chorus x2
Chorus x4

When strings play

(Both guitars) All Palm muted
e|---------------------------------------------------------|
B|---------------------------------------------------------|
G|---------------------------------------------------------|
D|---------------------------------------------------------|
A|-0-0-0--0-0-0--0-0-0--0-0-0--8-8-8--8-8-8--8-8-8--8-8-8--|
D|-0-0-0--0-0-0--0-0-0--0-0-0--8-8-8--8-8-8--8-8-8--8-8-8--|

e|---------------------------------------------------------|
B|---------------------------------------------------------|
G|---------------------------------------------------------|
D|---------------------------------------------------------|
A|-5-5-5--5-5-5--5-5-5--5-5-5--1-1-1--1-1-1--1-1-1--1-1-1--|
D|-5-5-5--5-5-5--5-5-5--5-5-5--1-1-1--1-1-1--1-1-1--1-1-1--|

e|---------------------------------------------------------|
B|---------------------------------------------------------|
G|---------------------------------------------------------|
D|---------------------------------------------------------|
A|-0-0-0--0-0-0--0-0-0--0-0-0--8-8-8--8-8-8--8-8-8--8-8-8--|
D|-0-0-0--0-0-0--0-0-0--0-0-0--8-8-8--8-8-8--8-8-8--8-8-8--|

e|---------------------------------------------------------|
B|---------------------------------------------------------|
G|---------------------------------------------------------|
D|---------------------------------------------------------|
A|-5-5-5--5-5-5--5-5-5--5-5-5--8-8-8--8-8-8--7-7-7--7-7-7--|
D|-5-5-5--5-5-5--5-5-5--5-5-5--8-8-8--8-8-8--7-7-7--7-7-7--|

After strings "Loved ones..."
e|---------------|
B|---------------|
G|---------------|
D|-0--8--5--8-7--|
A|-0--8--5--8-7--|
D|-0--8--5--8-7--|

Solo (Gtr. 2)
e|---------------|
B|---------------|
G|---------------|
D|-0--8--5--8-7--|
A|-0--8--5--8-7--|
D|-0--8--5--8-7--|

e|------------------------10----------12-10-12b^13>12-15--|
B|-8-10-13--10-8-10--8-10-----10-8-10---------------------|
G|--------------------------------------------------------|
D|--------------------------------------------------------|
A|--------------------------------------------------------|
D|--------------------------------------------------------|

e|---------------|
B|---------------|
G|---------------|
D|-0--8--5--8-7--|
A|-0--8--5--8-7--|
D|-0--8--5--8-7--|

Post Chorus (Both Guitars) Listen for rythm

e|-------------|
B|-------------|
G|-7-----5-----|
D|-7--0--5--2--|
A|-5--0--3--2--|
D|----0-----2--|


e|----------------|
B|----------------|
G|----------------|
D|-0--2--3--5--2--|
A|-0--2--3--5--2--|
D|-0--2--3--5--2--| Let last chord ring

Chorus x4

End on

e|---|
B|---|
G|---|
D|-0-|
A|-0-|
D|-0-|


Enjoy   Let me know of any mistakes so I can fix them.
Thanks
Comments