Avenged Sevenfold - Afterlife Chords & Tabs

 

Avenged Sevenfold Chords & Tabs

Version: 3 Type: Tab 0 ratings
1 star 2 stars 3 stars 4 stars 5 stars
comments

Afterlife Tab

E|--------------------------------------------------------------------------|
B|----------------------------------------------------------X3--------------|
G|-------------------.-.-.------------------.-.-.---------------------------|
D|-------------------0-0-0------------------0-0-0--3--5--7------------------|
A|---7-5-----5-------0-0-0--7-5-----5-------0-0-0--3--5--7------------------|
D|-------8-7---8-7-5-0-0-0------8-7---8-7-5-0-0-0--3--5--7------------------|


E|--------------------------------------------------------------------------|
B|--------------------------------------------------------------------------|
G|-------------------.-.-.------------------.-.-.---------------------------|
D|-------------------0-0-0------------------0-0-0--0--3--5--6--5--3---------|
A|---7-5-----5-------0-0-0--7-5-----5-------0-0-0--0--3--5--6--5--3---------|
D|-------8-7---8-7-5-0-0-0------8-7---8-7-5-0-0-0--0--3--5--6--5--3---------|
[ Tab from: http://www.guitartabs.cc/tabs/a/avenged_sevenfold/afterlife_tab_ver_3.html ]
Right After "I See A Distant Light"
E|--------------------------------------------------------------------------|
B|--X4---X3----X3-----------------------------------------------------------|
G|-5-/--9-/--10-/--12-------------------------------------------------------|
D|-5-/--x-/--x--/--x--------------------------------------------------------|
A|-3-/--7-/--8--/--10-------------------------------------------------------|
D|--------------------------------------------------------------------------|

Right After"But Girl This Can't Be Right"
E|--------------------------------------------------------------------------|
B|--X4----X3----X3----------------------------------------------------------|
G|-5-/--12-/--14-/--15------------------------------------------------------|
D|-5-/--x--/--x--/--x-------------------------------------------------------|
A|-3-/--10-/--12-/--13------------------------------------------------------|
D|--------------------------------------------------------------------------|


Key:
/:Slide Up
. :Palm Mute


Im Pretty Sure This Is Right But If Theres Anything Wrong Juss Tell Me
Comment And Rate Pleasee! Thanks!
A7X-4-LIFE
Comments