Avenged Sevenfold - Afterlife Chords & Tabs

 

Afterlife Chords & Tabs

Avenged Sevenfold Chords & Tabs

Version: 11 Type: Tab 0 ratings
1 star 2 stars 3 stars 4 stars 5 stars
comments

Afterlife Tab

   
Legend
*-palm mute
/-slide down
//-slide up
p-pulloff
h-hammer on
b-bend
#*b-divebomb


1st Solo

--------------------------------------------------------------------------|
---------5h6h8p6---5h6h8//15----------5h6h8p6---5h6h8//17-----------------|
------5-7--------7-----------------5-7--------7---------------------------|
--------------------------------------------------------------------------|
-5-8--------------------------5-8-----------------------------------------|
--------------------------------------------------------------------------|
 * *                          * *

------------------------------//13/8p6h8p6p5-------------------------------|
--------5h6h8p6---5h6h8//20-----------------8p6p5h6h8//13p12p11h12---------|
-----5-7--------7-------------------------------------------------12p10p9p-|
---------------------------------------------------------------------------|
-5-8-----------------------------------------------------------------------|
---------------------------------------------------------------------------|
 * *

--------------------------------------------------------------------------|
--------------------------------------------------------------------------|
7h9------6-7--------------------------------------------------------------|
---11/7h9-----------------------------------------------------------------|
--------------------------------------------------------------------------|
--------------------------------------------------------------------------|


17161513151617161513--------------13151617---1210121310121312101310-------|
--------------------15----------15----------------------------------------|
----------------------14------14------------------------------------------|
------------------------15--15--------------------------------------------|
--------------------------17----------------------------------------------|
--------------------------------------------------------------------------|


--------------10121313---18171615161718171615/1310------------------15161718-|
11----------11------------------------------------11--------------15---------|
--10------10----------------------------------------10----------15-----------|
----12--12--------------------------------------------12------15-------------|
------13------------------------------------------------13//17---------------|
-----------------------------------------------------------------------------|
[ Tab from: http://www.guitartabs.cc/tabs/a/avenged_sevenfold/afterlife_tab_ver_11.html ]
18171615161718171615------------------1417//22-------------------1716-----|
--------------------1714----------1417---------1514----------1817---------|
------------------------15------15-----------------1514//1918-------------|
--------------------------16--16------------------------------------------|
----------------------------17--------------------------------------------|
--------------------------------------------------------------------------|


1010101010101010101010101313101010101010151510101010101013131010101010101515
--------------------------------------------------------------------------|
--------------------------------------------------------------------------|
--------------------------------------------------------------------------|
--------------------------------------------------------------------------|
--------------------------------------------------------------------------|


101010101010131310101015151010101313--------------------------------------|
--------------------------------------------------------------------------|
--------------------------------------------------------------------------|
--------------------------------------------------------------------------|x2
--------------------------------------------------------------------------|
--------------------------------------------------------------------------|


13131313131315151313131313131717131313131313151513131313131317171313131515
--------------------------------------------------------------------------|
--------------------------------------------------------------------------|
--------------------------------------------------------------------------|
--------------------------------------------------------------------------|
--------------------------------------------------------------------------|


131313171715151517171515151919151515-181715------171315-------------------|
-------------------------------------------181715------171315-------------|
-------------------------------------------------------------151412-------|
-------------------------------------------------------------------151412-|
--------------------------------------------------------------------------|
--------------------------------------------------------------------------|


--------------------------------------------------------------------------|
1512----------------------------------------------------------------------|
----12--------------------5*b---------------------------------------------|
------12--121415//17------------------------------------------------------|
--------12----------------------------------------------------------------|
--------------------------------------------------------------------------|
Comments