Avenged Sevenfold - Afterlife Chords & Tabs

 

Afterlife Chords & Tabs

Avenged Sevenfold Chords & Tabs

Version: 1 Type: Tab 0 ratings
1 star 2 stars 3 stars 4 stars 5 stars
comments

Afterlife Tab

       Verse
 Tap it twice
[-------------------------------------------------------------------|
[-------------------------------------------------------------------|
[-------------------------------------------------------------------|
[---------------5~--7~----------------5~---7~---8~---------[x5]-----|
[--5t8t8--5t8t8-5~--7~--5t8t8--5t8t8--5~---7~---8~------------------|
[---------------5~--7~----------------5~---7~---8~------------------|
[ Tab from: http://www.guitartabs.cc/tabs/a/avenged_sevenfold/afterlife_tab.html ]
       Verse 2
[------------------------------------------------------------------|
[-----------------------------[x2]---------------------------------|
[---5---------3----------------------------------------------------|
[---5--[x16]--3--[keep continue till its repeat then]-----0--------|
[---3---------1-------------------------------------------0--[x16]-|
[---------------------------------------------------------0--------|


      Chorus
                do this 2 times
[-------------------------------------------|
[-------------------------------------------|
[-------------5----------3------------------|
[---3---------5---[x8]---3----[x16]---------|
[---3--[x8]---3----------1------------------|
[---3---------------------------------------|

     Thx! But I'm Sorry Coz I Only Do A Little and if there are mistakes, pls tell mie. THX!
Comments