Avantasia - Anywhere Chords & Tabs

 

Anywhere Chords & Tabs

Avantasia Chords & Tabs

Version: 3 Type: Tab 0 ratings
1 star 2 stars 3 stars 4 stars 5 stars
comments

Anywhere Tab

   
Song: Anywhere
Group: Avantasia
Album: The Metal Opera Part.2
Day Tabbed: 17/06/03
Transcribed By: David 




Chorus (guitar enter at 2.40):
e|--------------|-----------------|--------------|-----------|
B|--------------|-----------------|--------------|-----------|
G|--------------|-----------------|--------------|-----------|
D|--------4-----|-----------4-----|--------4-----|-----------|
A|--6--2--2--4--|--6--2--4--2--4--|--6--2--2--4--|--6--4--2--|
E|--4--0-----2--|--4--0--2-----2--|--4--0-----2--|--4--2--0--|


Solo:
e|---------------------11-12--12--11p9---------------|
B|--9-12b(14)--12b(14)-----------------12------------|
G|-----------------------------------------13-9-11~--|
D|---------------------------------------------------|
A|---------------------------------------------------|
E|---------------------------------------------------|

e|---------------------11-12--12--11p9-----16----------14-------14--|
B|--9-12b(14)--12b(14)-----------------12~----17----17-------16-----|
G|-----------------------------------------------16-------16--------|
D|------------------------------------------------------------------|
A|------------------------------------------------------------------|
E|------------------------------------------------------------------|
[ Tab from: http://www.guitartabs.cc/tabs/a/avantasia/anywhere_tab_ver_3.html ]
e|--16~--16-17-19-19~--17--16h17p16-14~--14-16-17-17-16-14b(15)-----|
B|-------------------------------------------------------------17~--|
G|------------------------------------------------------------------|
D|------------------------------------------------------------------|
A|------------------------------------------------------------------|
E|------------------------------------------------------------------|

e|-------------------------17==------|
B|--17-16-17-16-----------------19=--|
G|--------------16-18==-18-----------|
D|-----------------------------------|
A|-----------------------------------|
E|-----------------------------------|


Solo (2nd guitar during solo):
e|--------------|--------------|--------------|--------------|
B|--------------|--------------|--------------|--------------|
G|--------------|--------------|--------------|--------------|
D|--6--2-----4--|--6--2-----4--|--6--2--4-----|--6--4--2-----|
A|--4--0--2--2--|--4--0--2--2--|--4--0--2--4--|--4--2--0--4--|
E|--------0-----|--------0-----|-----------6--|-----------2--|


Chorus (X4 with Fade Out):
e|--------------|-----------------|--------------|-----------|
B|--------------|-----------------|--------------|-----------|
G|--------------|-----------------|--------------|-----------|
D|--------4-----|-----------4-----|--------4-----|-----------|
A|--6--2--2--4--|--6--2--4--2--4--|--6--2--2--4--|--6--4--2--|
E|--4--0-----2--|--4--0--2-----2--|--4--0-----2--|--4--2--0--|




Symbol explanation:

b     bend up
r     bend release down
h     hammer-on
p     pull-off
~     vibrate
=     sustain
Comments