Avalon Drive - Simple Life Chords & Tabs

 

Simple Life Chords & Tabs

Avalon Drive Chords & Tabs

Version: 1 Type: Tab

Simple Life Tab

e---------------------------------------------------------------|
B---------------------------------------------------------------|
G---------------------------------------------------------------|   X4
D--------5-5--7-7----------5-5--7-7----------5-5--7-7-----------|
A---------------------------------------------------------------|
E---5-5--------------1-1---------------3-3----------------------|

e---------------------------------------------------------------|
B---------------------------------------------------------------|
G---------------------------------------------------------------|
D-------5-------------------------------------------------------|
A-------5-let ring----------------------------------------------|
E-------3-------------------------------------------------------|
[ Tab from: http://www.guitartabs.cc/tabs/a/avalon_drive/simple_life_tab.html ]