Autopsy - Your Rotting Face Chords & Tabs

 

Your Rotting Face Chords & Tabs

Autopsy Chords & Tabs

Version: 1 Type: Tab 0 ratings
1 star 2 stars 3 stars 4 stars 5 stars
comments

Your Rotting Face Tab

-AUTOPSY - YOUR ROTTING FACE from the "Acts of the Unspeakable" CD (c) 1992 Vile Music
-Transcribed by Chris Myhre. Version 1.2 Sept 2000 (ver 1.1 Mar 2000)
-For questions, corrections, etc email me: bowel_ripper@hotmail.com
-For best print edit the left/right margins in page setup to make the tab fit the sheet
-Tuning: two steps down (1:C, 2:G, 3:D#, 4:A#, 5:F, 6:C)
-Notation legend: * = see note; ~ = vibrato; . = palm mute; \ = slide down;
                 nh = natural harmonic; ^ = semitone trill
[ Tab from: http://www.guitartabs.cc/tabs/a/autopsy/your_rotting_face_tab.html ]
1>|gtr 1 & 2-----------------------------------------x2--------------------------------
2>|---------------------------------------------------|--------------------------------
3>|---------------------------------------------------|--------------------------------
4>|---------------------------------------------------|--------------------------------
5>|2--4--5--------2--4--5--------2--4--5----4----2----|4--3-3-3--3--3-3-3--3--3-3-3--3-
6>|2--2--2--------2--2--2--------2--2--2----2----2----|2--1-1-1--1--1-1-1--1--1-1-1--1-
  |
  |      *              *                *		      *
  |------15~(fade in)---15~(fade in)-----15~(fade in)---------15~-----|
  |----------------------------------------------------------(fade in)|
  |-------------------------------------------------------------------| * gtr 4
  |4--6--7--------4--6--7---6-4----4--6--7----6----4------------------| gtr 3
  |-------------------------------------------------------------------|
  |-------------------------------------------------------------------|
	   _______________________________________ ________________________________
  --------|    1				  |    2
  ---------------------------------------------------------------------------------
  ---------------------------------------------------------------------------------
  ---------------------------------------------------------------------1p0-1-----1-
  -3-3-3-3-4--3-3-3--3--3-3-3--3--3--3--3-\-2-2----4--3-3-3--3--3-3-3--------2-3---
  -1-1-1-1-2--1-1-1--1--1-1-1--1--1--1--1-\-0-0----2--1-1-1--1--1-1-1--------------
									     . . .
  ___________________
    (2)             x2-------------------------------------------------|-----------------
  -------------------|-------------------------------------------------|-----------------
  -------------------|-------------------------------------------------|------4nh-4nh----
  -----3-----1-------|-------------------------------------------------|-----------------
  -1-2---1-2---------|3-----4--3-----6--3-----4--3-----6--3-----4--3---|3--3----------2--
  -------------4~----|1-----2--1-----4--1-----2--1-----4--1-----2--1---|1--1----------0--
   . . . . . .
		       * gtr 1					  riff A
  ---------------x4------only---x2-----------------------x3------|gtr 1 2nd time only----x2
  ----------------|--------------|------------------------'------|------------------------|
  ----------------|------*--*-*--|------------------------'------|----------------5-----4-|
  ----------------|------5\-4----|------------------------'------|----5-----4---4-----3---|
  --2----2----2---|3--3--3\-2-6--|5-------4-----3--3-2-3--'5-----|--4-----3---3-----------|
  --0----0----0---|1--1-------4--|5----2-----1-----1-0-1--'5-----|3-----2-----------1-----|

	      * gtr 2 plays	* gtr 2 2nd time only
  |riff B-------notes on----x4-------|-----x8---------------x4--(w/lead)-------------------x4
  |-------------right side---|-------|------|----------------|------------------------------|
  |-----------------------*--|repeat-|repeat|----------------|------------------------------|
  |----------------2--*--3|--|riff A*|riff B|----------------|------------------------------|
  |4--4-4-4-4-3--1---2|---|--|-------|------|2---3---4---3---|----------------------------7-|
  |2--2-2-2-2-1-------|0--|1-|-------|------|0---1---2---1---|2-4-4-4-2-4-4-4-3-4-4-4-2-4-5-|

  '--pA-------------------------'----------------------------x3------|------------x4-----
  '-----------------------------'-----------------------------'------|-------------|-----
  '-----------------------------'-----------------------------'repeat|-------------|-----
  '-------------------------5---'-------------------------6---'--pA--|-------------|-----
  '5-5--5-5-5--5-5-5--5-5-4---4-'6-6--6-6-6--6-6-6--6-6-5---5-'------|6------4--3--|4--4-
  '3-3--3-3-3--3-3-3--3-3-------'4-4--4-4-4--4-4-4--4-4-------'------|4--3^--2--1--|2--2-
                 			  _______________ _______________________________
  -------------------------'-------------|  1, 2         |       3                      x3
  -------------------------'-------------------------------------------------------------|
  -------------------------'------4nh-4nh------------------------------------------------|
  -4nh-4nh-----------------'-------------------------------------------------------------|
  ---------3---------------'4--4----------3---------------3--------------3--2--2--2--2---|
  ---------1---------------'2--2----------1---------------1--------------1--0--0--0--0---|
								     ____________
  |----* this note isn't--x4----------------------------------------|     1
  |------played 1st time---|-----------------------------------------------------
  |------------------------|-----------------------------------------------------
  |----------------------*-|-----------------------------------------------------
  |1^----1---1-------3---3-|4--3-3-3--3--3-3-3--3--3-3-3--3--3-3-3-3-4--3-3-3--3-
  |----2---2---0-1-2---2---|2--1-1-1--1--1-1-1--1--1-1-1--1--1-1-1-1-2--1-1-1--1-
       . . . . . . . . . .
  ___________________________ ________________________________________
        (1)                  |          2                            x2
  --------------------------------------------------------------------|
  --------------------------------------------------------------------|
  --------------------------------------------------------------------|
  -3-3-3--3--3-3-3-3-3-\-2-2--4--3-3-3--3--3-3-3--3--3-3-3--2--2--2---|
  -1-1-1--1--1-1-1-1-1-\-0-0--2--1-1-1--1--1-1-1--1--1-1-1--0--0--0---|
Comments