Autopsy - Squeal Like A Pig Chords & Tabs

 

Squeal Like A Pig Chords & Tabs

Autopsy Chords & Tabs

Version: 1 Type: Tab 0 ratings
1 star 2 stars 3 stars 4 stars 5 stars
comments

Squeal Like A Pig Tab

   
               A U T O P S Y  -  S Q U E A L  L I K E  A  P I G  
                       From the Album FIEND FOR BLOOD
                          Copyright 1991 VILE MUSIC

                            Version 2.0 - JUNE '02

Originally Transcribed by: Chris Myhre
Re-formatted/Corrected by: death8699

For Questions, Comments, Newest Version, or Corrections contact
     Chris: at bowel_ripper@hotmail.com
 death8699: at ArchEnemies@aol.com

Check Out Death8699.com, With More Transcriptions On It:
 http://www.death8699.com

.  - palm mute                  /  - slide up to
\  - slide down to              ~  - vibrato
"  - tremelo picking           ( ) - ghost note
b  - bend                       h  - hammer-on
fb - full bend (1 step)         p  - pull-off
hb - half bend (1/2 step)       r  - release a bend
t  - tapping                    ah - artificial harmonic

Tune Gtr to C

--SQUEAL LIKE A PIG--

[Riff A]
[--------------------|-------------------]
[--------------------|-------------------]
[*-------------------|------------------*]GTR 1
[*-4------5---3------|-4------5---8-----*] 
[--2------3---1------|-2------3---6------]
[--2------3---1------|-2------3---6------]
                                  *  
[--------------------|-------------------]
[--------------------|-------------------]
[*-------------------|------------------*]GTR 2
[*-4------5---3------|-4------5---8-----*] 
[--2------3---1------|-2------3---6------]
[--2------3---1------|-2------3---6------]
                                  *


[Fill 1]
[--------------]
[--------------]
[*------------*]GTR 1
[*------------*] 
[--------------]
[--5__6--4__3--]
     h    p    

[--------------]
[--------------]
[*------------*]GTR 2
[*------------*] 
[--------------]
[--5__6--4__3--]
     h    p


[Riff B]
[------------------------|-----------------------|-----------------------]
[------------------------|-----------------------|-----------------------]
[*-----------------------|-----------------------|----------------------*]GTR 1
[*-----------------------|-----------------------|----------------------*]
[------------------------|-----------6__5--------|-----------------------]
[--4"---3"---5__6--4__3--|-4"---3"-----p---4__3--|-4"---3"---5__6--4__3--]
               h    p                       p                  h    p

[------------------------|-----------------------|-----------------------]
[------------------------|-----------------------|-----------------------]
[*-----------------------|-----------------------|----------------------*]GTR 2
[*-----------------------|-----------------------|----------------------*]
[------------------------|-----------6__5--------|-----------------------]
[--4"---3"---5__6--4__3--|-4"---3"-----p---4__3--|-4"---3"---5__6--4__3--]
               h    p                       p                  h    p

[------------------------]
[------------------------]
[*----------------------*]GTR 1
[*----------------------*] 
[-------5----------------]
[--4"---3----------------]
        *

[------------------------]
[------------------------]
[*----------------------*]GTR 2
[*----------------------*] 
[-------5----------------]
[--4"---3----------------]
        *


[Riff C]                                    [4tx]
[----------------------|------------------------]
[----------------------|------------------------]
[*---------------------|-----------------------*]GTR 1
[*-----------5--7--8---|---8-8--8--------------*]
[--2---------3--5--6---|---6-6--6---5__6__5--3--]
[--0------0--3--5--6---|---6-6--6-----h-p-------]

                                            [4tx]
[----------------------|------------------------]
[----------------------|------------------------]
[*---------------------|-----------------------*]GTR 2
[*-----------5--7--8---|---8-8--8--------------*]
[--2---------3--5--6---|---6-6--6---5__6__5--3--]
[--0------0--3--5--6---|---6-6--6-----h-p-------]


[Riff C.1] [w/Riff C]                       [2tx]
[----------------------|------------------------]
[----------------------|------------------------]
[*---------------------|-----------------------*]GTR 3
[*-----------5--7--8---|---8-8--8---7__8__7--5-*] 
[--2-------------------|--------------h-p-------]
[--0------0------------|------------------------]


[Riff D]                                      [4tx]
[-------------------------------------------------]
[-------------------------------------------------]
[*-----------------------------------------------*]GTR 1
[*-9------9-9--8------8-8--8---------------------*] 
[--7------7-7--6------6-6--6----------------------]
[--7------7-7--6------6-6--6------10__11__10--8---]
                                     h  p      
                                              [4tx]
[-------------------------------------------------]
[-------------------------------------------------]
[*-----------------------------------------------*]GTR 2
[*-9------9-9--8------8-8--8------12__13__12--10-*]
[--7------7-7--6------6-6--6---------h--p---------]
[--7------7-7--6------6-6--6----------------------]


[Riff E]
[--------------------|-------------------|-------------------]
[--------------------|-------------------|-------------------]
[*-------------------|-------------------|------------------*]GTR 1
[*-------------------|-------------------|------------------*] 
[--------------------|-------------3__2--|-------------------]
[--0"----2__3--5__6--|-0"----4__5---p----|-0"----2__3--5__6--]
           h    h              h                   h    h

[--------------------|-------------------|-------------------]
[--------------------|-------------------|-------------------]
[*-------------------|-------------------|------------------*]GTR 2
[*-------------------|-------------------|------------------*]
[--------------------|-------------------|-------------------]
[--------------------|-------------------|-------------------]

[--------------------]
[--------------------]
[*------------------*]GTR 1
[*----9--8--------8-*] 
[-----7--6--8--9--6--]
[--0"-7--6--6--7--6--]

[--------------------]
[--------------------]
[*------------------*]GTR 2
[*----9--8--------8-*] 
[-----7--6--8--9--6--]
[-----7--6--6--7--6--]


Play Riff E       3 times
Play Riff B       1 time
Play Riff C       2 times
Play Riff C + C.1 2 times


[Riff D.1]                                    [4tx]
[-------------------------------------------------]
[-------------------------------------------------]
[*-----------------------------------------------*]GTR 1
[*-9------9-9--8------8-8--8---------------------*] 
[--7------7-7--6------6-6--6----------------------]
[--7------7-7--6------6-6--6------10__11__10--8---]
                                     h  p      
                                              [4tx]
[-------------------------------------------------]
[-------------------------------------------------]
[*-----------------------------------------------*]GTR 2
[*-9------9-9--8------8-8--8------12__13__12--10-*]
[--7------7-7--6------6-6--6---------h--p---------]
[--7------7-7--6------6-6--6----------------------]

                                              [4tx]
[-------------------------------------------------]
[-------------------------------------------------]
[*-----------------------------------------------*]GTR 3
[*-9------9-9--8------8-8--8----------8----7---5-*]
[--7------7-7--6------6-6--6----------6----5---3--]
[--7------7-7--6------6-6--6----------6----5---3--]


[Riff F]                                        [1tx]
[---------------------------------------------------]
[---------------------------------------------------]
[*-------------------------------------------------*]GTR 1
[*----------------------------------------------3--*] 
[--------------------------/7-----------3---6-------]
[--0---6---0---7---6---1---sl---6---0---------------]
                    
[---------------------------------------------------]
[---------------------------------------------------]
[*-------------------------------------------------*]GTR 2
[*-------------------------------------------------*]
[---------------------------------------------------]
[---------------------------------------------------]

[ Tab from: http://www.guitartabs.cc/tabs/a/autopsy/squeal_like_a_pig_tab.html ]
[Riff F.1]                                               [1tx]
[------------------------------------------------------------]
[------------------------------------------------------------]
[*---------------------------4------------------------------*]GTR 1
[*------3--------4---3-------2--3-------4--4--4--3--3--3----*]
[--2-2--1---2-2--2---1---2---2--1---2---2--2--2--1--1--1--3--]
[--0-0------0-0----------0----------0---------------------1--]

                                                         [1tx]
[------------------------------------------------------------]
[------------------------------------------------------------]
[*---------------------------4------------------------------*]GTR 2
[*------3--------4---3-------2--3-------4--4--4--3--3--3----*]
[--2-2--1---2-2--2---1---2---2--1---2---2--2--2--1--1--1--3--]
[--0-0------0-0----------0----------0---------------------1--]


[Riff F.2]                          [3tx]
[---------------------------------------]
[---------------------------------------]
[*-------------------------------------*]GTR 1
[*--------------------4---4--3---3-----*]
[--2---2--2--2--2--2--2---2--1---1--3---]
[--0---0--0--0--0--0----------------1---]
       .  .  .  .  .             .

                                    [3tx]
[---------------------------------------]
[---------------------------------------]
[*-------------------------------------*]GTR 2
[*--------------------4---4--3---3-----*]
[--2---2--2--2--2--2--2---2--1---1--3---]
[--0---0--0--0--0--0----------------1---]
       .  .  .  .  .             .


[Riff F.3] [w/Riff F.2]             [1tx]
[---------------------------------------]
[---------------------------------------]
[*-------------------------------------*]GTR 3
[*--------------------4---4--3---3-----*]
[--2---2--2--2--2--2----------------3---]
[--0---0--0--0--0--0--------------------]
       .  .  .  .  .


[Riff G]
[------------------------|-----------------------------------]
[------------------------|-----------------------------------]
[*-----------------------|----------------------------------*]GTR 1
[*----------------9------|-9------9-------------------------*] 
[--2------8---9---7------|-7------7---9---8---9-------10-----]
[--0------6---7---0------|-0----------7---6---7-------8------]

[------------------------|-----------------------------------]
[------------------------|-----------------------------------]
[*-----------------------|----------------------------------*]GTR 2
[*-----------------------|----------------------------------*] 
[--2--------------7------|-7------7-----------9_(10)---------]
[--0------6---7---0------|-0----------7---6----tr-----8_(9)--]
                                                       tr

[------------------------|-----------------------------------]
[------------------------|-----------------------------------]
[*-----------------------|----------------------------------*]GTR 1
[*----------------9------|-9------9-------------------------*] 
[--2------8---9---7------|-7------7---9---8---3--------------]
[--0------6---7---0------|-0----------7---6---1--------------]

[------------------------|-----------------------------------]
[------------------------|-----------------------------------]
[*-----------------------|----------------------------------*]GTR 2
[*-----------------------|----------------------------------*] 
[--2--------------7------|-7------7--------------------------]
[--0------6---7---0------|-0----------7---6---1__(2)---------]
                                               tr


[Riff h]
[--------------------------------|--------------------------------]
[--------------------------------|--------------------------------]
[*-------------------------------|----------------------------3--*]GTR 1
[*-------------2--2--1__2__1-----|-------------2--2--1__2__1-----*]
[----------------------h-p----1--|---------------------h-p--------]
[--0--1--3__4--------------------|-0--1--3__4---------------------]
   .  .    h                       .  .    h

[--------------------------------|--------------------------------]
[--------------------------------|--------------------------------]
[*-------------------------------|-------------------------------*]GTR 2
[*-------------------------------|-------------------------------*] 
[--------------------------------|--------------------------------]
[--------------------------------|--------------------------------]

[--------------------------------]
[--------------------------------]
[*------------------------------*]GTR 1
[*-------------2--2--1__2__1----*]
[----------------------h-p----1--]
[--0--1--3__4--------------------]
   .  .    h


[Riff I] [w/Fill 2]
[----------------------------------------12-11~--------|-------------]
[-------------------------------------11---------------|-------------]
[*--------------------------9-8-----9------------------|------------*]GTR 1
[*-----2-1_2_1------------8-----9-8--------------------|------------*] 
[----2----h-p---2-1-----7------------------------------|-2--2--2--2--]
[--1----------------2-3--------------------------------|-0--0--0--0--]
                                                         .  .  .  .

[Fill 2]
[--------------------------------------------------------------------]
[--------------------------------------------------------------------]
[*------------16---16--15_16_15------------16-15_16_15--------------*]GTR 2
[*-----------------------h--p----15-----16------h--p----16-15-------*]
[--14-15-17_18-----------------------15-----------------------17-16--]
[----------h---------------------------------------------------------]


[Riff I.1]
[----------------------------------|-------------]
[----------------------------------|-------------]
[*---------------------------9--8~-|------------*]GTR 1
[*-----2-1_2_1------------8--------|------------*] 
[----2----h-p--2-1-----7-----------|-2--2--2--2--]
[--1---------------2-3-------------|-0--0--0--0--]
                                     .  .  .  .

[----------------------------------|-------------]
[----------------------------16-15~|-------------]
[*---------------------------------|------------*]GTR 2
[*-----2-1_2_1------------13-------|------------*] 
[----2----h-p--2-1-----12----------|-2--2--2--2--]
[--1---------------2-3-------------|-0--0--0--0--]
                                     .  .  .  .


[Riff J] [Over Solo]
[-------------------------|-------------------------]
[-------------------------|-------------------------]
[*------------------------|------------------------*]GTR 1
[*------------------------|------------------------*] 
[--2--2--2--2--1--1--5--5-|-1--1--2--2--2--2--7--7--]
[--0--0--0--0--0--0--0--0-|-0--0--0--0--0--0--------]
   .  .  .  .  .  .  .  .   .  .  .  .  .  .

[-------------------------|-------------------------]
[-------------------------|-------------------------]
[*------------------------|------------------------*]GTR 2
[*------------------------|------------------------*] 
[--2--2--2--2--1--1--5--5-|-1--1--2--2--2--2--7--7--]
[--0--0--0--0--0--0--0--0-|-0--0--0--0--0--0--------]
   .  .  .  .  .  .  .  .   .  .  .  .  .  .

[-------------------------|-------------------------]
[-------------------------|-------------------------]
[*------------------------|------------------------*]GTR 1
[*------------------------|------------------------*] 
[--2--2--2--2--1--1--5--5-|-1--1--7--7--7--7--7--7--]
[--0--0--0--0--0--0--0--0-|-0--0--6--6--6--6--6--6--]
   .  .  .  .  .  .  .  .   .  .  .  .  .  .

[-------------------------|-------------------------]
[-------------------------|-------------------------]
[*------------------------|------------------------*]GTR 2
[*------------------------|------------------------*] 
[--2--2--2--2--1--1--5--5-|-1--1--7--7--7--7--7--7--]
[--0--0--0--0--0--0--0--0-|-0--0--6--6--6--6--6--6--]
   .  .  .  .  .  .  .  .   .  .  .  .  .  .

[-------------------------]
[-------------------------]
[*-----------------------*]GTR 1
[*-----------------------*] 
[--6__(7)--6__(7)---------]
[---tr------tr------------]

[-------------------------]
[-------------------------]
[*-----------------------*]GTR 2
[*-----------------------*] 
[--6__(7)--6__(7)---------]
[---tr------tr------------]


Play Riff J 1 time
Play Riff H 1 time


[Ending]
[----------------------|----------------]
[----------------------|----------------]
[*---------------------|---------------*]GTR 1
[*-----2-1_2_1---------|---------------*]
[----2----h-p--2-1-----|-----------1-2--]
[--1---------------2-3-|-1-3-4-3-1---0--]
                         . . . . . . *

[----------------------|----------------]
[----------------------|----------------]
[*---------------------|-----------3-4-*]GTR 2
[*-----2-1_2_1---------|-3-5-6-5-3---2-*]
[----2----h-p--2-1-----|-------------*--]
[--1---------------2-3-|----------------]
                         . . . . . .

Check Out Death8699.com, With More Transcriptions On It:
 http://www.death8699.com
Comments