Autopsy - Pagan Saviour Chords & Tabs

 

Pagan Saviour Chords & Tabs

Autopsy Chords & Tabs

Version: 1 Type: Tab 0 ratings
1 star 2 stars 3 stars 4 stars 5 stars
comments

Pagan Saviour Tab

___________________________________________________________________________
-AUTOPSY - PAGAN SAVIOUR from the "Severed Survival" CD (c) 1990 Peaceville
-Transcribed by Chris Myhre. Version 1.1 June 2002 (last ver: 1.0 Dec 99)
-Email: bowel_ripper@hotmail.com - Website: http://home.no.net/bowelrip
-For best print edit the left/right margins in page setup to make the tab fit the sheet
-Tuning: 1.75 steps down (somewhere between C and C#)
-Notation legend: p = pull-off; / = slide up; \ = slide down;
 ^ = semitone trill; * = see note; " = tremolopick; ~ = vibrato

   gtr 1 plays lower notes only, 3rd/4th time
1>|gtr 1 & 2--------------------x4----------------|riff A----------------------------x6
2>|------------------------------|----------------|-----------------------------------|
3>|------6-----------7-----------|----------------|-----------------------------------|
4>|---5--4--6-----6--5--6--5-----|----------------|-----------------------------------|
5>|4--3-----4--5--4-----4--3--5--|4-------4-------|3-------------2-3-4----------7--6--|
6>|2-----------3--------------3--|2-------2-------|1-------------0-1-2----------5--4--|
   "  "  "  "  "  "  "  "  "  "                / \ "                 "          "  "
[ Tab from: http://www.guitartabs.cc/tabs/a/autopsy/pagan_saviour_tab.html ]
|--------|-----------------* gtr 1 plays these---------------x5------|------------------------
|--------|-------------------notes 2nd/4th time---------------|------|------------------------
|--------|--------------------------------------------5*4*----|repeat|------------------------
|--------|--------------------------------------------5-4-5*--|riff A|------8-7-4-------------
|3-------|2--22-3-2---3-2---------2---2-3-2---3-2-6---3-2-5---|------|5-----6-5-2-------5-----
|1-----9-|0--00-1-0---1-0-3-2-3---0---0-1-0---1-0-4-------3---|------|3-----------------3-----
      / \                  p^ ~                                       "     " " "       "
											       |
 -----------x2--------------------------------------------------------------------------------
 ------------|--------------------------------------------------------------------------------
 ------------|--------------------------------------------------------------------------------
 ------------|------------3-4-----------------------------------------------------------------
 4-5-8-------|4-----------1-2-3-----------2-3-4-------------------------------5-5-----5-5-----
 2-3-6-------|2---------------1-----------0-1-2---------------3-2-3-2-5-2-3-2-3-3-----3-3-----
 " " "        "               "               "                p   p   p   p

 ---------------x4--riff B-------x3--------|gtr 2---------* not played-----x4-------x7
 ----------------|----------------'--------|----------------last time-------|-repeat-'
 ----------------|----------------'--------|--------------------------------|-riff A-'
 ------------5---|----------------'--------|------------------------*-------|(w/solo)'
 5-5-----5-5-3---|4-------3-------'4-------|3-------6-------2-------2-------|--------'
 3-3-----3-3-----|2---5-4-1---5-4-'2---5-4-|1-------4-------0-------0-------|--------'
                       p^      p^       p^ |
                                           |
'------------------|------|----------|     |gtr 1----------x8
'------------------|------|----------|     |----------------'
'------------------|repeat|----------|     |------5---------'
'------------------|riff B|----------|     |3-6-5---6-5-3-2-'
'3-------------2-3-|------|3---6---2-|     |----------------'
'1-------------0-1-|------|1---4---0-|     |----------------'
 "                                    _______________________________ ______________
                                     |         1.                    |     2.      x2
'------8-----------------11-----------------7---------------7---------12------------|
'6-9-8---9-8-6-5-9-12-11----12-11-9-8-5-8-7---8-7-5-4-5-8-7---8-7-5-4---------------|
'-----------------------------------------------------------------------------------| gtr 1
'-----------------------------------------------------------------------------------| cont'd
'-----------------------------------------------------------------------------------|
'-----------------------------------------------------------------------------------|
                                                                      ~
Comments