Autopsy - Maim Rape Kill Rape Chords & Tabs

 

Maim Rape Kill Rape Chords & Tabs

Autopsy Chords & Tabs

Version: 1 Type: Tab 0 ratings
1 star 2 stars 3 stars 4 stars 5 stars
comments

Maim Rape Kill Rape Tab

-AUTOPSY - MAIM RAPE KILL RAPE from the "Shitfun" CD (c) 1995 Peaceville
-Transcribed by Chris Myhre. Version 1.0 Nov 2000
-For questions, corrections, etc email me: bowel_ripper@hotmail.com
-For best print edit the left/right margins in page setup to make the tab fit the sheet
-Tuning: two steps down (1:C, 2:G, 3:D#, 4:A#, 5:F, 6:C)
-Notation legend: h = hammer-on; . = (slight) palm mute; / = slide up;
  \ = slide down; ^ = semitone trill; * = see note

   gtr 1 & 2     _____ _____x4
1>|w/fill 1-----x8-----------------|1, 3 |2, 4  |-------------------------------x6
2>|--------------|------------------------------|--------------------------------|
3>|--------------|------------------------------|--------------------------------|
4>|--------------|----------8---5-4---6-7---3-2-|--------3-4---4---------3-4---5-|
5>|7---6---7--8--|--6-7---6---3-----6-----1-----|--------1-2-2-2---------1-2-2-3-|
6>|7---6---7--6--|4-----5-----------------------|11111111----0---11111111----0---|
........ ........

    gtr 1 gtr 2    riff A (w/fill 2) __ __x6  riff B
  |------------0-5--\-'-------------------|---* gtr 2 joins-----|1,|2,4|--gtr 1 & 2-------
  |-------------------'------------0-5--\-|-----here 2nd time---|3,|---|------------------
  |------1-2-3--------'-------------------|---------------------|5 |---|------------------
  |0-2-3--------------'------1-2-3--------|-------------------------*--|------------------
  |-------------------'2-3-5--------------|----3-----------3--------3--|3------2--4--3----
  |-------------------'-------------------|0h2---2-----0h2---2---0--1--|1------0--2--1----

  --------|-------x4-----x2-----------------------------------------------------------x4
  --------|(w/lead)|------|------------------------------------------------------------|
  --------|-repeat-|repeat|------------------------------------------------------------|
  --------|-riff A-|riff B|-----------------------------------------------------6-5-6--|
  --7--6--|--------|------|--------------------6------7------------------6-5----4-3-4--|
  --0--6--|--------|------|3-3-3-3-3-3-3-3-6h7----7h8----3-3-3-3-3-3-3-3-----6---------|
   . . . . . . . . . . . . . . . .

* octave played by gtr 3 (w/echo effect)
  |--------------------------------'--------------only the two first times------x2
  |--------------------------------'--------------of the whole riff-----------*--|
  |--------------------------------'---------------------------------------*--16-| whole
  |--------------------------------'------------------------------------*--14-9--| riff x3
  |--------------------1111--------'6-----------6-----------6-----------13-7-----|
  |11114444000044443333----22222222'6-0-0-0-0-0-6-0-0-0-0-0-6-0-0-0-0-0-6--------|
   ................................   . . . . .   . . . . .   . . . . .^-ends here last time
[ Tab from: http://www.guitartabs.cc/tabs/a/autopsy/maim_rape_kill_rape_tab.html ]
  |-----------------------------------------------x2--------------------------------
  |------------------------------------------------'--------------------------------
  |------------------------------------------------'--------------------------------
  |----9-8---------5-6---------9-8-----6-----5-----'------6-----5-------------6-----
  |--7-----6-----4-----5-----7-----6-----5-----4---'3-------5-----4---3---4-----5---
  |6---------5-3---------4-6---------5-----4-----3-'1---------4-----3-1---2-------4-

  -------------------------|(w/lead-------x8---------------|-----------------* gtr 2 joins--
  -------------------------|-4th time)-----'---------------|-------------------here---------
  -------------------------|---------------'---------------|--------------------------------
  -5-----------6-----5-----|---------------'---------------|----7/8-7---7---------7/8-7---7-
  ---4---3-------5-----4---|3--4------3----'5--6------5----|----------8-------*---------8---
  -----3-1---------4-----3-|1--2------1----'5--6------5----|4h5---------------4h5-----------
   ___ ____________________________
  |1,3|  2, 4 (played x2          x4------------------------x8------------------------
  -------------last time)----------|-------------------------|------------------------
  ---------------------------------|-------------------------|------------------------
  ---------------------------------|-------------------------|------------------------
  ---------3-4-----3-4-----3-4-3-4-|----------------6------7-|7-----------6-----------
  -1^--1^--3-2-1^--3-2-1^--3-2-3-4-|6-6-6-6-5-5-4-5----5-6---|--6-6-6-6-6---5-5-4-5-4-
    . . . . . . . .    . . . . . . .   . . . . .
   _______________________ ______   _______________ _____
  |  1, 2, 3              | 4   x4---------------| 1, 2, 3       | 4  x4
  -------------------------------|-------------------------------------|
  -------------------------------|-------------------------------------|
  -------------------------4-----|--------------------------------4----|
  -2-----------2-----------2-3---|7-------6-------2-------2-------2-3--|
  ---1-1-1-1-1---1-1-1-1-1---1---|--6-6-6---5-4-5---1-1-1---1-1-1---1--|
     . . . . .   . . . . .     . . .   . . .   . . .   . . .

  FILL 1      (Harmonization with gtr 3 last 4 times)
  |-------------------x8           |-------------------x2---------------------x2
  |--------------------|           |--------------------'----------------------|
  |--------------------| gtr 3     |--------------------'----------------------| gtr 4
  |--------------------|           |5-----4-----5---4---'9------8-----9----8---|
  |7-----6-----7---6---|           |--6-5---5-4---6---5-'--10-9---9-8---10---9-|
  |--8-7---7-6---8---7-|           |--------------------'----------------------|
     . .   . .       . .   . .    .. .   . .

     gtr 3      __ _______   gtr 4 (harm. with gtr 3)  ___ _______
  |-------------------------|1 | 2    x2---------------------------| 1 |  2   x2
  |------------------------------------'--------14-------------14---12--11-----|
  |-------11------------11---9--10-----'-----12-------------12-----------------| FILL 2
  |----10------------10----------------'9/11-----------9/11--------------------|
  |7/9-----------7/9-------------------'---------------------------------------|
  |------------------------------------'---------------------------------------|

Check out my personal tablature page where you can find all my newest tabs:

www.workspot.net/~bowelripper
Comments