Autopilot Off - Wide Awake Chords & Tabs

 

Wide Awake Chords & Tabs

Autopilot Off Chords & Tabs

Version: 1 Type: Tab 0 ratings
1 star 2 stars 3 stars 4 stars 5 stars
comments

Wide Awake Tab

   
--------------------------------------------------------------------------------
                            Wide Awake - Autopilot Off 
--------------------------------------------------------------------------------

Artist: Autopilot Off
Song Title: Wide Awake
Website:http://www.islandrecords.com/autopilotoff/index2.html
Tabbed by: Zero is great man
Tunning: EADGBe

Intro:
e|---------------------------------|
B|---------------------------------|
G|---------------------------------|
D|-4-4-4-4-4-4-4-4-4-4-4-4-4-4-4-4-|
A|-4-4-4-4-4-4-4-4-4-4-4-4-4-4-4-4-|
E|-2-2-2-2-2-2-2-2-2-2-2-2-2-2-2-2-|
 |-------------p.m.----------------|

Verse 1: "I'm breaking promises and breaking you apart..."
e|------------------------------------------------------------------------|
B|------------------------------------------------------------------------|
G|------------------7-7-7-7-7-7-7-7-7--4-4-4-4-4-4-4-4--------------------|
D|-4-4-4-4-4-4-4-4--7-7-7-7-7-7-7-7-7--4-4-4-4-4-4-4-4--4-4-4-4-4-4-4-4-4-|(x2)
A|-4-4-4-4-4-4-4-4--5-5-5-5-5-5-5-5-5--2-2-2-2-2-2-2-2--4-4-4-4-4-4-4-4-4-|
E|-2-2-2-2-2-2-2-2--------------------------------------2-2-2-2-2-2-2-2-2-|

Chorus: "Cause I don't know just what I need."
e|----------------------------------------------------------------------|
B|----------------------------------------------------------------------|
G|-7-7-7-7--9-9-9-9-------------------7-7-7-7--9-9-9-9------------------|
D|-7-7-7-7--9-9-9-9--4-4-4-4-4-4-4-4--7-7-7-7--9-9-9-9--4-4-4-4-4-4-4-4-|
A|-5-5-5-5--7-7-7-7--4-4-4-4-4-4-4-4--5-5-5-5--7-7-7-7--4-4-4-4-4-4-4-4-|(x2)
E|-------------------2-2-2-2-2-2-2-2--------------------2-2-2-2-2-2-2-2-|

Fill:
e|---------------------------|
B|---------------------------|
G|----------7-7--7-7-7-7-7-7-|
D|-4-4/7-7--7-7--7-7-7-7-7-7-|
A|-4-4/7-7--5-5--5-5-5-5-5-5-|(x4)
E|-2-2/5-5-------------------|
[ Tab from: http://www.guitartabs.cc/tabs/a/autopilot_off/wide_awake_tab.html ]
Verse 2: "Medicine bottles lying empty on the floor..."
e|------------------------------------------------------------------------|
B|------------------------------------------------------------------------|
G|------------------7-7-7-7-7-7-7-7-7--4-4-4-4-4-4-4-4--------------------|
D|-4-4-4-4-4-4-4-4--7-7-7-7-7-7-7-7-7--4-4-4-4-4-4-4-4--4-4-4-4-4-4-4-4-4-|(x2)
A|-4-4-4-4-4-4-4-4--5-5-5-5-5-5-5-5-5--2-2-2-2-2-2-2-2--4-4-4-4-4-4-4-4-4-|
E|-2-2-2-2-2-2-2-2--------------------------------------2-2-2-2-2-2-2-2-2-|

Verse 2 -Guitar 2:
e|------------------------------------------------------------------------|
B|------------------------------------------------------------------------|
G|------------------7-7-7-7-7-7-7-7-7--9-9-9-9-9-9-9-9--------------------|
D|-4-4-4-4-4-4-4-4--x-x-x-x-x-x-x-x-x--x-x-x-x-x-x-x-x--4-4-4-4-4-4-4-4-4-|
A|-x-x-x-x-x-x-x-x--5-5-5-5-5-5-5-5-5--7-7-7-7-7-7-7-7--x-x-x-x-x-x-x-x-x-|
E|-2-2-2-2-2-2-2-2--------------------------------------2-2-2-2-2-2-2-2-2-|

[Chorus]

Bridge:"All this feels like..."
e|---------------------------------------------|
B|---------------------------------------------|
G|--------7-7-7-7-7-7-7---------7-7-7-7-7--9-9-|
D|-4-4-4--x-x-x-x-x-x-x--4-4-4--x-x-x-x-x--x-x-|
A|-4-4-4--5-5-5-5-5-5-5--4-4-4--5-5-5-5-5--7-7-|(x6)
E|-2-2-2-----------------2-2-2-----------------|

[Verse 1]

Outro:(play the chorus once instead of twice then)
"Three in the morning, and I'm writing this all down...)
e|-----------------------------------|
B|-----------------------------------|
G|-7-7-7-7--9-9-9-9------------------|
D|-7-7-7-7--9-9-9-9--4-4-4-4-4-4-4-4-|
A|-5-5-5-5--7-7-7-7--4-4-4-4-4-4-4-4-|
E|-------------------2-2-2-2-2-2-2-2-|

"And I hope this makes it easier somehow"
e|-----------------------------------|
B|-----------------------------------|
G|-7--------9------------------------|
D|-7--------9--------4---------------|(x2)
A|-5-*-*-*--7-*-*-*--4---------------|
E|-------------------2-*-*-*-*-*-*-*-|

Key:
x -muted note or no noise
* -Let ring for a half second.
/ -Slide upward
p.m - plam mute

================================================================================
Comments