Autopilot Off - Nothing Frequency Chords & Tabs

 

Nothing Frequency Chords & Tabs

Autopilot Off Chords & Tabs

Version: 2 Type: Bass Tab

Nothing Frequency Bass Tab

Autopilot Off - Nothing Frequency

this is an awesome song, but a little bit difficult to play. if you can strum fast,
then this is a very fun song to play. everything is in order, so follow the tab all
the way through. standard tuning.

 Key

 x - left hand mute
 h - hammer on
 p - pull off
 / slide up
 \ slide down

---------------------------------------------------------------------------------

Intro

G|----------------------------------------------|
D|--0--0----------------------------------------|
A|----------0--0------------2--2-xxx--0--0-xxx--| (x2)
E|------------------3--3------------------------|

Verse

G|--------------------------------------------|
D|--0-0000000-00000000--5-5555555-5555-4h5p4--|
A|--------------------------------------------| (x1)
E|--------------------------------------------|

G|--------------------------------------------|
D|--0-0000000-00000000--5-5555555-7777-4h5p4--|
A|--------------------------------------------| (x1)
E|--------------------------------------------|

G|---------------------------------------------|
D|--0-0000000-00000000--5-5555555-55-44-22-00--|
A|---------------------------------------------| (x1)
E|---------------------------------------------|

G|---------------------------6h7--------6h7--|
D|----------------------5555-----555555------|
A|--2-222222--0-000000-----------------------| (x1)
E|-------------------------------------------|

G|-------------------------------------------|
D|-------------------------------5555-4h5p4--|
A|--2-222222--0-000000-----------------------| (x1)
E|----------------------3-333333-------------|

Chorus

G|----------------------------------------------|
D|--0--0----------------------------------------|
A|----------0--0------------2--2-xxx--0--0-xxx--| (x2)
E|------------------3--3------------------------|

Verse

G|--------------------------------------------|
D|--0-0000000-00000000--5-5555555-5555-4h5p4--|
A|--------------------------------------------| (x1)
E|--------------------------------------------|

G|--------------------------------------------|
D|--0-0000000-00000000--5-5555555-7777-4h5p4--|
A|--------------------------------------------| (x1)
E|--------------------------------------------|

G|---------------------------------------------|
D|--0-0000000-00000000--5-5555555-55-44-22-00--|
A|---------------------------------------------| (x1)
E|---------------------------------------------|

G|---------------------------6h7--------6h7--|
D|----------------------5555-----555555------|
A|--2-222222--0-000000-----------------------| (x1)
E|-------------------------------------------|

G|-------------------------------------------|
D|-------------------------------5555-4h5p4--|
A|--2-222222--0-000000-----------------------| (x1)
E|----------------------3-333333-------------|
[ Tab from: http://www.guitartabs.cc/tabs/a/autopilot_off/nothing_frequency_btab_ver_2.html ]
Chorus

G|----------------------------------------------|
D|--0--0----------------------------------------|
A|----------0--0------------2--2-xxx--0--0-xxx--| (x2)
E|------------------3--3------------------------|

Bridge

G|------------------------------------------|
D|----------------------0-000000------------|
A|--------------------------------0-000000--| (x2)
E|--3-3333333-33333333----------------------|

G|-----------------------------------------|
D|----------------------0-000000/7-777777--|
A|-----------------------------------------| (x1)
E|--3-3333333-33333333---------------------|

G|----------------------------------------------|
D|------------------------------------------0~--|
A|--------------------------------0-000000------| (x1)
E|--0-0000000-00000000--3-333333----------------|

G|--------------------------------------------|
D|--00000000----------------------------------|
A|-----------00000000------------2222-00-xxx--| (x1)
E|---------------------33333333---------------|

Chorus (More Strumming)

G|--------------------------------------------|
D|--0--0--0000-00000000-----------------------|
A|-----------------------0--0--0000-00000000--| (x1)
E|--------------------------------------------|

G|---------------------------------------------|
D|---------------------------------------------|
A|-----------------------2--2--222--0--0--000--| (x1)
E|--3--3--3333-33333333------------------------|

G|--------------------------------------------|
D|--0--0--0000-00000000-----------------------|
A|-----------------------0--0--0000-00000000--| (x1)
E|--------------------------------------------|

G|---------------------------------------------|
D|---------------------------------------------|
A|-----------------------2--2--222--0--0--000--| (x1)
E|--3--3--3333-33333333------------------------|

G|--------------------------------------------|
D|--0--0--0000-00000000-----------------------|
A|-----------------------0--0--0000-00000000--| (x1)
E|--------------------------------------------|

G|---------------------------------------------|
D|---------------------------------------------|
A|-----------------------2--2--222--0--0--000--| (x1)
E|--3--3--3333-33333333------------------------|

G|--------------------------------------------|
D|--0--0--0000-00000000-----------------------|
A|-----------------------0--0--0000-00000000--| (x1)
E|--------------------------------------------|

G|---------------------------------------------|
D|---------------------------------------------|
A|-----------------------2--2--222--0--0--000--| (x1)
E|--3--3--3333-33333333------------------------|

Outro

G|-----------------|
D|--0--0-----0--0--|
A|-----------------|
E|-----------------|


and there you go. if you have any comments or questions you can e-mail me at
killinginthename247@yahoo.com. enjoy!