Autopilot Off - Nothing Frequency Chords & Tabs

 

Nothing Frequency Chords & Tabs

Autopilot Off Chords & Tabs

Version: 1 Type: Bass Tab 0 ratings
1 star 2 stars 3 stars 4 stars 5 stars
comments

Nothing Frequency Bass Tab

   
Autopilot Off - Nothing Frequency
Album: Autopilot Off EP
Tuning: E A D G
Tabbed By: Dean K. (projectwyze13@hotmail.com)

Intro/Chorus
G-----------------------------
D-0-0-0-----------------------
A--------0-0------------------
E--------------3-3-7-7-5-5----
     Verse
G --------------------------------------------------------
D 0-0-0-0-0-0-0-0-0-0-0-0-------------------------5-5-3-3-
A ------------------------0-0-0-0-0-0-0-0-0-0-0-0---------
E --------------------------------------------------------
[ Tab from: http://www.guitartabs.cc/tabs/a/autopilot_off/nothing_frequency_btab.html ]
Bridge
G------------------------------
D------------------------------
A------------------------------
E 3-3-3-3-3-3-3-3-3-3-3-3------

Break
G--------------------------------------------------
D 00000000-----------------------------------------
A ----------00000000-------------------------------
E----------------------------3333333377773333------

Riff 
G---------------------------------------------------
D---------------------------------------------------
A---------------------------------------------------
E -7-7-7-7-7-7-7-7-5-5-5-5-5-5-5-5-3-3-3-3-3-3-3-3--
ORDER
Intro x2
Verse x3
Bridge x1
Verse x1
Bridge x1
Chorus x2
Verse x3
Bridge x1
Verse x1
Bridge x1
Chorus x2
Riff x1
Break x2
Chorus x 4
Comments