Autopilot Off - Make A Sound Chords & Tabs

 

Make A Sound Chords & Tabs

Autopilot Off Chords & Tabs

Version: 1 Type: Tab 0 ratings
1 star 2 stars 3 stars 4 stars 5 stars
comments

Make A Sound Tab

   
-------------------------------------------------------------------------------
			     Make a Sound - Autopilot Off
-------------------------------------------------------------------------------
Tabbed by: Scuba Steve 
Email: swagner13@earthlink.net
(My first online tab, not perfect, but then again it's by ear.)
Tuning: Standard E

Intro (0:00 - 0:18)
e|-------------------------------------------------------------------------|
B|-------------------------------------------------------------------------|
G|-6---------9----------4--------------------------------------------------|x2 
D|66-x8------9-x8-------4-x8------4----------------------------------------|
A|64---------7----------2---------4-x8--(second time; x1, let ring out)----|
E|4-------------------------------2----------------------------------------|
[ Tab from: http://www.guitartabs.cc/tabs/a/autopilot_off/make_a_sound_tab.html ]
Verse (0:18 - 0:37)
e|-------------------------------------------------------------------------|
B|-------------------------------------------------------------------------|
G|-6---------9----------4--------------------------------------------------|x2
D|-6-x8------9-x8-------4-x8--(x16 on 2nd)----4----------------------------|
A|-4---------7----------2---------------------4-x8--(skip on 2nd)----------|
E|--------------------------------------------2----------------------------|
pre-chorus (0:37 - 0:53)
e|-------------------------------------------------------------------------|
B|-------------------------------------------------------------------------|
G|-6----8--9----8--6----------------6----8--9----8--8----------------------|
D|-6----8--9----8--6----------------6----8--9----8--8-x(repeat til chorus)-|
A|-4----6--7----6--4----------------4----6--7----6--6----------------------|
E|-------------------------------------------------------------------------|
Chorus   (0:53 - 1:15)
e|-------------------------------------------------------------------------|
B|-------------------------------------------------------------------------|
G|-6--6-6--6-4---6-6-------9----11---/13---2-------------------------------|x2
D|-6--6-6--6-4---6-6-x3----9x3--11-x3/13---2-x8---4------6-----------------|
A|-4--4-4--4-2---4-4-------7----9----/11---0------4-x3---6-x3--------------|
E|------------------------------------------------2------4-----------------|

Verse      (1:15 - 1:33)
Pre-Chorus (1:34 - 1:49)
Chorus     (1:50 - 2:12)

Bridge (2:12 - 2:39)
e|---------------------------------|   |-0-------0-------0-------0---------|
B|---------------------------------|   |-2-------2-------2-------2---------|
G|-------6/8-----------------------|x2 |-1-------1-------1-------1---------|
D|-6-----6/8----------6-------2----|   |-----------------------------------|
A|-6-----4/6----------6-------2----|   |-----------------------------------|
E|-4------------------4-------0----|   |-----------------------------------|

Chorus x2 (2:40 - 3:20)

 
Outro (has a reverb effect) (3:20 - 3:43)
e|-------------------------------------------------------------------------|
B|-------------------------------------------------------------------------|
G|--6----------------------------------------------------------------------|
D|--6-x8--(last note ring out)---------------------------------------------|
A|--4----------------------------------------------------------------------|
E|-------------------------------------------------------------------------|


| /  slide up
| \  slide down
| h  hammer-on
| p  pull-off
| ~  vibrato
| +  harmonic
| x  Mute note
===============================================================================
Awesome song, awesome band. Peace.
Comments