Autopilot Off - Long Way To Fall Chords & Tabs

 

Long Way To Fall Chords & Tabs

Autopilot Off Chords & Tabs

Version: 3 Type: Tab 0 ratings
1 star 2 stars 3 stars 4 stars 5 stars
comments

Long Way To Fall Tab

Autopilot Off
Long Way To Fall

very cool song... i decided to tab this and make it easier to read. everything is in
order... no single scattered parts. just read through the whole tab.

standard tuning (EBGDAE)


----------------------------------------------------------------------------
Guitar 1

intro

E|-----------------------------------------|
B|-----------------------------------------|
G|-----------------9--9-9--4--4-4-4-4-4-4--|
D|--x-x-x--4--4-4--9--9-9--4--4-4-4-4-4-4--|
A|--x-x-x--4--4-4--7--7-7--2--2-2-2-2-2-2--| (x1)
E|--x-x-x--2--2-2--------------------------|

E|----------------------------------|
B|----------------------------------|
G|----------9--9-9--4--4-4-4-4-4-4--|
D|--4--4-4--9--9-9--4--4-4-4-4-4-4--|
A|--4--4-4--7--7-7--2--2-2-2-2-2-2--| (x3)
E|--2--2-2--------------------------|

verse

E|------------------------------------|
B|------------------------------------|
G|--------------------9--9-9-9-9-9-9--|
D|--4-4---4-4---4-4---9--9-9-9-9-9-9--|
A|--4-4---4-4---4-4---7--7-7-7-7-7-7--| (x2)
E|--2-2---2-2---2-2-------------------|

E|-------------------------------------------------------------|
B|-------------------------------------------------------------|
G|---------------------------------------------9--9-9--4--4-4--|
D|--4-4-x-x-x-x-x-4-4-x-x-x-x-x-4-4-x-x-x-x-x--9--9-9--4--4-4--|
A|--4-4-x-x-x-x-x-4-4-x-x-x-x-x-4-4-x-x-x-x-x--7--7-7--2--2-2--| (x2)
E|--2-2-x-x-x-x-x-2-2-x-x-x-x-x-2-2-x-x-x-x-x------------------|

chorus

E|------------------------------------------------------------------|
B|------------------------------------------------------------------|
G|--2--2-2-2-2-2-2-2-2-2-2-2-2-2-2----------------------------------|
D|--2--2-2-2-2-2-2-2-2-2-2-2-2-2-2--2--2-2-2-2-2-2-2-2-2-2-2-2-2-2--|
A|--0--0-0-0-0-0-0-0-0-0-0-0-0-0-0--2--2-2-2-2-2-2-2-2-2-2-2-2-2-2--| (x1)
E|----------------------------------0--0-0-0-0-0-0-0-0-0-0-0-0-0-0--|

E|------------------------------------------------------------------|
B|------------------------------------------------------------------|
G|--4--4-4-4-4-4-4-4-4-4-4-4-4-4-4----------------------------------|
D|--4--4-4-4-4-4-4-4-4-4-4-4-4-4-4--4--4-4-4-4-4-4-4-4-4-4-4-4-4-4--|
A|--2--2-2-2-2-2-2-2-2-2-2-2-2-2-2--4--4-4-4-4-4-4-4-4-4-4-4-4-4-4--| (x1)
E|----------------------------------2--2-2-2-2-2-2-2-2-2-2-2-2-2-2--|

E|------------------------------------------------------------------|
B|------------------------------------------------------------------|
G|--2--2-2-2-2-2-2-2-2-2-2-2-2-2-2----------------------------------|
D|--2--2-2-2-2-2-2-2-2-2-2-2-2-2-2--2--2-2-2-2-2-2-2-2-2-2-2-2-2-2--|
A|--0--0-0-0-0-0-0-0-0-0-0-0-0-0-0--2--2-2-2-2-2-2-2-2-2-2-2-2-2-2--| (x1)
E|----------------------------------0--0-0-0-0-0-0-0-0-0-0-0-0-0-0--|

E|----------------------------------|
B|----------------------------------|
G|----------9--9-9--4--4-4-4-4-4-4--|
D|--4--4-4--9--9-9--4--4-4-4-4-4-4--|
A|--4--4-4--7--7-7--2--2-2-2-2-2-2--| (x4)
E|--2--2-2--------------------------|

verse

E|------------------------------------|
B|------------------------------------|
G|--------------------9--9-9-9-9-9-9--|
D|--4-4---4-4---4-4---9--9-9-9-9-9-9--|
A|--4-4---4-4---4-4---7--7-7-7-7-7-7--| (x2)
E|--2-2---2-2---2-2-------------------|

E|-------------------------------------------------------------|
B|-------------------------------------------------------------|
G|---------------------------------------------9--9-9--4--4-4--|
D|--4-4-x-x-x-x-x-4-4-x-x-x-x-x-4-4-x-x-x-x-x--9--9-9--4--4-4--|
A|--4-4-x-x-x-x-x-4-4-x-x-x-x-x-4-4-x-x-x-x-x--7--7-7--2--2-2--| (x2)
E|--2-2-x-x-x-x-x-2-2-x-x-x-x-x-2-2-x-x-x-x-x------------------|

chorus

E|------------------------------------------------------------------|
B|------------------------------------------------------------------|
G|--2--2-2-2-2-2-2-2-2-2-2-2-2-2-2----------------------------------|
D|--2--2-2-2-2-2-2-2-2-2-2-2-2-2-2--2--2-2-2-2-2-2-2-2-2-2-2-2-2-2--|
A|--0--0-0-0-0-0-0-0-0-0-0-0-0-0-0--2--2-2-2-2-2-2-2-2-2-2-2-2-2-2--| (x1)
E|----------------------------------0--0-0-0-0-0-0-0-0-0-0-0-0-0-0--|

E|------------------------------------------------------------------|
B|------------------------------------------------------------------|
G|--4--4-4-4-4-4-4-4-4-4-4-4-4-4-4----------------------------------|
D|--4--4-4-4-4-4-4-4-4-4-4-4-4-4-4--4--4-4-4-4-4-4-4-4-4-4-4-4-4-4--|
A|--2--2-2-2-2-2-2-2-2-2-2-2-2-2-2--4--4-4-4-4-4-4-4-4-4-4-4-4-4-4--| (x1)
E|----------------------------------2--2-2-2-2-2-2-2-2-2-2-2-2-2-2--|

E|------------------------------------------------------------------|
B|------------------------------------------------------------------|
G|--2--2-2-2-2-2-2-2-2-2-2-2-2-2-2----------------------------------|
D|--2--2-2-2-2-2-2-2-2-2-2-2-2-2-2--2--2-2-2-2-2-2-2-2-2-2-2-2-2-2--|
A|--0--0-0-0-0-0-0-0-0-0-0-0-0-0-0--2--2-2-2-2-2-2-2-2-2-2-2-2-2-2--| (x1)
E|----------------------------------0--0-0-0-0-0-0-0-0-0-0-0-0-0-0--|

E|----------------------------------|
B|----------------------------------|
G|----------9--9-9--4--4-4-4-4-4-4--|
D|--4--4-4--9--9-9--4--4-4-4-4-4-4--|
A|--4--4-4--7--7-7--2--2-2-2-2-2-2--| (x4)
E|--2--2-2--------------------------|

bridge/solo

E|--------------------------------------------|
B|--------------------------------------------|
G|-------9--9-9--4--4-4-------9--9-9--4--4-4--|
D|--4~---9--9-9--4--4-4--4~---9--9-9--4--4-4--|
A|--4~---7--7-7--2--2-2--4~---7--7-7--2--2-2--| (x1)
E|--2~-------------------2~-------------------|

E|----------------------------------------------------------------|
B|----------------------------------------------------------------|
G|------------------------------------------------9--9-9--4--4-4--|
D|--4--4-4-4-2-4-2-4--4-4-4-2-4-2-4--4-4-4-2-4-2--9--9-9--4--4-4--|
A|--4--4-4-4-2-4-2-4--4-4-4-2-4-2-4--4-4-4-2-4-2--7--7-7--2--2-2--| (x2)
E|--2--2-2-2-0-2-0-2--2-2-2-0-2-0-2--2-2-2-0-2-0------------------|

chorus

E|--------------------------------------------------------------------|
B|--------------------------------------------------------------------|
G|--2-2-2-2-2-2-2-2-2-2-2-2-2-2-2-2-----------------------------------|
D|--2-2-2-2-2-2-2-2-2-2-2-2-2-2-2-2--2-2-2-2-2-2-2-2-2-2-2-2-2-2-2-2--|
A|--0-0-0-0-0-0-0-0-0-0-0-0-0-0-0-0--2-2-2-2-2-2-2-2-2-2-2-2-2-2-2-2--| (x1)
E|-----------------------------------0-0-0-0-0-0-0-0-0-0-0-0-0-0-0-0--|
*all palm-muted
[ Tab from: http://www.guitartabs.cc/tabs/a/autopilot_off/long_way_to_fall_tab_ver_3.html ]
E|--------------------------------------------------------------------|
B|--------------------------------------------------------------------|
G|--4-4-4-4-4-4-4-4-4-4-4-4-4-4-4-4-----------------------------------|
D|--4-4-4-4-4-4-4-4-4-4-4-4-4-4-4-4--4-4-4-4-4-4-4-4-4-4-4-4-4-4-4-4--|
A|--2-2-2-2-2-2-2-2-2-2-2-2-2-2-2-2--4-4-4-4-4-4-4-4-4-4-4-4-4-4-4-4--| (x1)
E|-----------------------------------2-2-2-2-2-2-2-2-2-2-2-2-2-2-2-2--|
*all palm-muted

E|------------|
B|------------|
G|--2-2-------|
D|--2-2---2~--|
A|--0-0---2~--| (x1)
E|--------0~--|

outro

E|----------------------------------|
B|----------------------------------|
G|----------9--9-9--4--4-4-4-4-4-4--|
D|--4--4-4--9--9-9--4--4-4-4-4-4-4--|
A|--4--4-4--7--7-7--2--2-2-2-2-2-2--| (x8)
E|--2--2-2--------------------------|

end on

E|-----|
B|-----|
G|-----|
D|--4--|
A|--4--| (x1)
E|--2--|

----------------------------------------------------------------------------
Guitar 2

intro

intro

E|-----------------------------------------|
B|-----------------------------------------|
G|-----------------9--9-9--4--4-4-4-4-4-4--|
D|--x-x-x--4--4-4--9--9-9--4--4-4-4-4-4-4--|
A|--x-x-x--4--4-4--7--7-7--2--2-2-2-2-2-2--| (x1)
E|--x-x-x--2--2-2--------------------------|

E|----------------------------------|
B|----------------------------------|
G|----------9--9-9--4--4-4-4-4-4-4--|
D|--4--4-4--9--9-9--4--4-4-4-4-4-4--|
A|--4--4-4--7--7-7--2--2-2-2-2-2-2--| (x3)
E|--2--2-2--------------------------|

verse

E|------------------------------------|
B|------------------------------------|
G|--------------------9--9-9-9-9-9-9--|
D|--4-4---4-4---4-4---9--9-9-9-9-9-9--|
A|--4-4---4-4---4-4---7--7-7-7-7-7-7--| (x2)
E|--2-2---2-2---2-2-------------------|

E|-------------------------------------------------------------|
B|-------------------------------------------------------------|
G|---------------------------------------------9--9-9--4--4-4--|
D|--4-4-x-x-x-x-x-4-4-x-x-x-x-x-4-4-x-x-x-x-x--9--9-9--4--4-4--|
A|--4-4-x-x-x-x-x-4-4-x-x-x-x-x-4-4-x-x-x-x-x--7--7-7--2--2-2--| (x2)
E|--2-2-x-x-x-x-x-2-2-x-x-x-x-x-2-2-x-x-x-x-x------------------|

chorus

E|----------------------------------------------------------|
B|-------------------------------------r--------------------|
G|-------------------------------------e--------------------|
D|--1--2--(2)/4~----(4)\1--2--(2)/4~---s---1--2--1----------|
A|-------------------------------------t------------(4)\2~--| (x1)
E|----------------------------------------------------------|

E|----------------------------------|
B|----------------------------------|
G|----------9--9-9--4--4-4-4-4-4-4--|
D|--4--4-4--9--9-9--4--4-4-4-4-4-4--|
A|--4--4-4--7--7-7--2--2-2-2-2-2-2--| (x4)
E|--2--2-2--------------------------|

verse

E|------------------------------------|
B|------------------------------------|
G|--------------------9--9-9-9-9-9-9--|
D|--4-4---4-4---4-4---9--9-9-9-9-9-9--|
A|--4-4---4-4---4-4---7--7-7-7-7-7-7--| (x2)
E|--2-2---2-2---2-2-------------------|

E|-------------------------------------------------------------|
B|-------------------------------------------------------------|
G|---------------------------------------------9--9-9--4--4-4--|
D|--4-4-x-x-x-x-x-4-4-x-x-x-x-x-4-4-x-x-x-x-x--9--9-9--4--4-4--|
A|--4-4-x-x-x-x-x-4-4-x-x-x-x-x-4-4-x-x-x-x-x--7--7-7--2--2-2--| (x2)
E|--2-2-x-x-x-x-x-2-2-x-x-x-x-x-2-2-x-x-x-x-x------------------|

chorus

E|----------------------------------------------------------|
B|-------------------------------------r--------------------|
G|-------------------------------------e--------------------|
D|--1--2--(2)/4~----(4)\1--2--(2)/4~---s---1--2--1----------|
A|-------------------------------------t------------(4)\2~--| (x1)
E|----------------------------------------------------------|

E|----------------------------------|
B|----------------------------------|
G|----------9--9-9--4--4-4-4-4-4-4--|
D|--4--4-4--9--9-9--4--4-4-4-4-4-4--|
A|--4--4-4--7--7-7--2--2-2-2-2-2-2--| (x4)
E|--2--2-2--------------------------|

bridge/solo

E|--------------------------------------------|
B|--------------------------------------------|
G|-------9--9-9--4--4-4-------9--9-9--4--4-4--|
D|--4~---9--9-9--4--4-4--4~---9--9-9--4--4-4--|
A|--4~---7--7-7--2--2-2--4~---7--7-7--2--2-2--| (x1)
E|--2~-------------------2~-------------------|

E|------------------------------------------------------------------|
B|--7--7-7-7-5-7-5--7--7-7-7-5-7-5--7--7-7-7-5-7-5--5--5-5-5-4-5-4--|
G|--4--4-4-4-4-4-4--4--4-4-4-4-4-4--4--4-4-4-4-4-4--2--2-2-2-2-2-2--|
D|------------------------------------------------------------------|
A|------------------------------------------------------------------| (x2)
E|------------------------------------------------------------------|

chorus

E|--------------------------------------------------------------------|
B|--------------------------------------------------------------------|
G|--2-2-2-2-2-2-2-2-2-2-2-2-2-2-2-2-----------------------------------|
D|--2-2-2-2-2-2-2-2-2-2-2-2-2-2-2-2--2-2-2-2-2-2-2-2-2-2-2-2-2-2-2-2--|
A|--0-0-0-0-0-0-0-0-0-0-0-0-0-0-0-0--2-2-2-2-2-2-2-2-2-2-2-2-2-2-2-2--| (x1)
E|-----------------------------------0-0-0-0-0-0-0-0-0-0-0-0-0-0-0-0--|
*all palm-muted

E|--------------------------------------------------------------------|
B|--------------------------------------------------------------------|
G|--4-4-4-4-4-4-4-4-4-4-4-4-4-4-4-4-----------------------------------|
D|--4-4-4-4-4-4-4-4-4-4-4-4-4-4-4-4--4-4-4-4-4-4-4-4-4-4-4-4-4-4-4-4--|
A|--2-2-2-2-2-2-2-2-2-2-2-2-2-2-2-2--4-4-4-4-4-4-4-4-4-4-4-4-4-4-4-4--| (x1)
E|-----------------------------------2-2-2-2-2-2-2-2-2-2-2-2-2-2-2-2--|
*all palm-muted

E|------------|
B|------------|
G|--2-2-------|
D|--2-2---2~--|
A|--0-0---2~--| (x1)
E|--------0~--|

outro

E|----------------------------------|
B|----------------------------------|
G|----------9--9-9--4--4-4-4-4-4-4--|
D|--4--4-4--9--9-9--4--4-4-4-4-4-4--|
A|--4--4-4--7--7-7--2--2-2-2-2-2-2--| (x4)
E|--2--2-2--------------------------|

E|---------------------------------------------|
B|---------------------------------------------|
G|--11--11-11-11--11-11-11--11-11-11-11-11-11--|
D|---x---x--x--x---x--x--x---x--x--x--x--x--x--|
A|---9---9--9--9---9--9--9---9--9--9--9--9--9--| (x3)
E|---------------------------------------------|

E|--------------------------------------|
B|--------------------------------------|
G|----------9--9-9--4--4-4-4-4-4-4------|
D|--4--4-4--x--x-x--x--x-x-x-x-x-x---4--|
A|--x--x-x--7--7-7--2--2-2-2-2-2-2---4--| (x1)
E|--2--2-2---------------------------2--|


there you go... if you have any comments or questions you can e-mail me at
killinginthename247@yahoo.com. enjoy!
Comments