Automatic Black - Go Your Way Chords & Tabs

 

Go Your Way Chords & Tabs

Automatic Black Chords & Tabs

Version: 1 Type: Tab 0 ratings
1 star 2 stars 3 stars 4 stars 5 stars
comments

Go Your Way Tab

Automatic Black
"Go your way" from De-Evolution CD
Tabbed by: draino231
Tuning: Standard
Listen to song at: www.automaticblack.com/audio.html


Intro/Main riff/Outro: Guitar 1 (Main riff/Outro no scratch at beggenning)

|xx---11---11---|
|xx-12---12-----|
|xx-------------|     x 7 or 8 (after 1st time no
|xx-------------|                scratch thing)
|xx-------------|
|xx-------------|

Intro/Main riff/Outro: Guitar 2 (Main riff/outro no scratch at beg.)

|xx------------------------------------------|
|xx-----xx-----------------------------------|
|xx-444-xx-----------------------------------|
|xx-444-xx-444-xx-666-xx-222-----------------|
|xx-222----444-xx-666-xx-222-----------------|   x2 (after first time no
|xx--------222-xx-444-xx-000-----------------|       scratch thing)

Verse- only two chords..figure out the strum on ur own
[ Tab from: http://www.guitartabs.cc/tabs/a/automatic_black/go_your_way_tab.html ]
|-2-----0---------------------------------------------|
|-2-----0---------------------------------------------|
|-4-----1---------------------------------------------|
|-4-----2---------------------------------------------|
|-2-----2---------------------------------------------|
|-2-----0---------------------------------------------|

Breakdown at end of verse
"so won't you stay..."
 (all palm muted)
|--------------|
|--------------|
|-6-----9------|
|-6-x8--9-x8---|
|-4-----7------|
|--------------|


Chorus: Guitar 1

|---11---11---|
|-12---12-----|
|-------------|     x 7 or 8 or however many times it is
|-------------|
|-------------|
|-------------|

Chorus: Guitar 2

|------------------------------------------------|
|------------------------------------------------|
|444-xx----------------------444-xx--------------|
|444-xx-444-xx-666-xx-222-xx-444-xx-444-xx-222---|
|222-xx-444-xx-666-xx-222-xx-222-xx-444-xx-222---|  x2
|-------222-xx-444-xx-000-xx-----xx-222-xx-000---|

Breakdown 2: "you crawl..."

(all palm muted)
|-----------------------------|
|-----------------------------|
|-6-----9--------------6----9-|
|-6-x8--9-x8-9----4----6-x8-9-|
|-4-----7----9-x8-4-x8-4----7-|
|------------7----2-----------|

Order:
-Intro
-Verse 1
-Breakdown
-Main Riff (only 1x instead of 2)
-Chorus
-Verse 2
-Breakdown
-Main Riff (only 1x instead of 2)
-Chorus
-Breakdown 2
-Main Riff regular (he sings: "to you, to you")
-Verse 3
-Breakdown
-Main Riff (only 1x instead of 2)
-Chorus
-Outro
Comments