Autolux - Capital Kind Of Strain Chords & Tabs

 

Capital Kind Of Strain Chords & Tabs

Autolux Chords & Tabs

Version: 1 Type: Tab

Capital Kind Of Strain Tab

-------------------------------------------------------------------------------
			     "Capital Kind of Strain" by Autolux
-------------------------------------------------------------------------------

tabbed by clark
email at: treefixation@gmail.com

general jist for capital kind of strain.
saw fingerings at show.
note to reader: get rhythms down
[ Tab from: http://www.guitartabs.cc/tabs/a/autolux/capital_kind_of_strain_tab.html ]
e------------------------|
b------------------------|
g----------------9-------|
d------7---7-----------7-|
a---(0)------------------|
e---8----8----8----8-----|
(part one)

a-----(0)---|
e---8-h-10--|
(change in bass/anchor note)

chord:
e-----------------------|
b-----------------------|
g--9-----9--------------|
d--7-----7--------------|
a-(0)---(0)-------------|
e--8-----8-h-10---------|