Authority Zero - Taking On The World Chords & Tabs

 

Taking On The World Chords & Tabs

Authority Zero Chords & Tabs

Version: 1 Type: Tab 0 ratings
1 star 2 stars 3 stars 4 stars 5 stars
comments

Taking On The World Tab

Song: Taking on the World
Artist: Authority Zero
Album: Andiamo
Tabbed by: christian / silent_warrior_@hotmail.com

Standard Tuning

All parts are there..just figure out where they go and where to palm mute.


Intro
|-----------------------------------------------------------------|
|-----------------------------------------------------------------|
|-----------------------------------------------------------------|
|-6-6-6-6-6-6-6-6--------------------------------99-9-9-9-9-9-9-9-|
|-4-4-4-4-4-4-4-4-77-7-7-7-7-7-7-22-2-2-2-2-2-2--66-6-6-6-7-7-6-6-|
|-----------------55-5-5-5-5-5-5-00-0-0-0-0-0-0-------------------|


|-------------------------------------------------------------------|   |--------|
|-------------------------------------------------------------------|   |--------|
|-------------------------------------------------------------------|   |---4~---|
|-6-6-6-6-6-6-6-6----------------99-9-9-9-9-9-9-9-9-9-9-9-9-9-9-9-9-|   |---4~---|
|-4-4-4-4-4-4-4-4-77-7-7-7-7-7-7-77-7-7-7-7-6-6-6-6-7-7-7-7-6-6-6-6-|   |---2~---|
|-----------------55-5-5-5-5-5-5------------------------------------|   |--------|


Verse
|--------------------------------------------------------------------------------|
|--------------------------------------------------------------------------------|
|-6-6-6-6-6-6-6-6------------------------------------------------6-6-6-6-6-6-6-6-|
|-6-6-6-6-6-6-6-6-7-7-7-7-7-7-7-7--9-999999--9-9-9--9-9-9-9-9-9--6-6-6-6-6-6-6-6-|
|-4-4-4-4-4-4-4-4-7-7-7-7-7-7-7-7--7-777777--6-7-6--9-9-9-9-9-9--4-4-4-4-4-4-4-4-|
|-----------------5-5-5-5-5-5-5-5-------------------7-7-7-7-7-7------------------|
[ Tab from: http://www.guitartabs.cc/tabs/a/authority_zero/taking_on_the_world_tab.html ]
|-------------------------------------|
|-------------------------------------|
|-------------------------------------|
|-7-7-7-7-7-7-7-7-2-2-2-2-2-2-2-2-2-2-|
|-7-7-7-7-7-7-7-7-2-2-2-2-2-2-2-2-2-2-|
|-5-5-5-5-5-5-5-5-0-0-0-0-0-0-0-0-0-0-|


Chorus
|-----------------------------------|
|-----------------------------------|
|-4-4-4-4-4-4--9-9--6-6-6-6-6-6-----|
|-4-4-4-4-4-4--9-9--6-6-6-6-6-6-2-2-|
|-2-2-2-2-2-2--7-7--4-4-4-4-4-4-2-2-|
|-------------------------------0-0-|

Verse
|--------------------------------------------------------------------|
|--------------------------------------------------------------------|
|-6-6-6-6-6-6-6------------------9-9-12-12-11-11-9-9-----------------|
|-6-6-6-6-6-6-6-7-7-7-7-7-7-7-7----------------------9-9-9-9-9-9-----|
|-4-4-4-4-4-4-4-7-7-7-7-7-7-7-7--7-7-10-10--9--9-7-7-9-9-9-9-9-9-----|
|---------------5-5-5-5-5-5-5-5----------------------7-7-7-7-7-7-----|


Slow part
|-------------------------------------------------|
|-------------------------------------------------|
|-6--6-6--6------------------------4-4--2-4-4-4---|
|-6--6-6--6--7--7-7--7--2--2-2--2--4-4--2-4-4-4---|
|-4--4-4--4--7--7-7--7--2--2-2--2--2-2--0-2-2-2---|
|------------5--5-5--5--0--0-0--0-----------------|


|-----------------------------------------------------|
|-----------------------------------------------------|
|-6-6-7-7-6-6-6------------------------4-4--2-4-4-4---|
|----------------7--7-7--7--2--2-2--2--4-4--2-4-4-4---|
|-4-4-5-5-4-4-4--7--7-7--7--2--2-2--2--2-2--0-2-2-2---|
|----------------5--5-5--5--0--0-0--0-----------------|


Fast part at the end
|-----------------------------------|
|-----------------------------------|
|-4-4-4-4-4-4--9-9--6-6-6-6-6-6-----|
|-4-4-4-4-4-4--9-9--6-6-6-6-6-6-2-2-|
|-2-2-2-2-2-2--7-7--4-4-4-4-4-4-2-2-|
|-------------------------------0-0-|
Comments