Authority Zero - Revolution Chords & Tabs

 

Revolution Chords & Tabs

Authority Zero Chords & Tabs

Version: 2 Type: Tab 0 ratings
1 star 2 stars 3 stars 4 stars 5 stars
comments

Revolution Tab

Song: Revolution
Artist: Authority Zero
Album: Andiamo
Tabbed by: christian / silent_warrior_@hotmail.com

PM - Palm mute
% - Rest
\ - Slide down

Drop D Tuning (DADGBE)


Bass intro..then...
|-------------------------|
|-------------------------|
|-------------------------|
|-0-----------------------|
|-0--00-000-00-00-000-000-|
|-0--00-000-00-00-000-000-|
PM   .. ... .. .. ... ...

|------------------------------------------------------------------------------------------------------------|
|------------------------------------------------------------------------------------------------------------|
|-14--14--14-14-14-14-12-10-12-12-12-12-12--7-7-7-7-7--14-14-15-13--14-14-15-14--19-19-19-19-19--7-7-7-7-7-7-|
|------------------------------------------------------------------------------------------------------------|
|-12--12--12-12-12-12-10--8-10-10-10-10-10--5-5-5-5-5--12-12-13-12--12-12-13-12--17-17-17-17-17--5-5-5-5-5-5-|
|------------------------------------------------------------------------------------------------------------|

Verse
|----------------------------------------------------------------------------------------|
|----------------------------------------------------------------------------------------|
|-----------------7--777777777777--10-101010101010101010101010--7-7777777777--7---7--777-|
|-3---------------7--777777777777--10-101010101010101010101010--7-7777777777--7-%-7--777-|
|-3--333333333333-5--555555555555---8--8-8-8-8-8-8-8-8-8-8-8-8--5-5555555555--5---5--555-|
|-3--333333333333------------------------------------------------------------------------|
PM   ............    ............      .......................    ..........
[ Tab from: http://www.guitartabs.cc/tabs/a/authority_zero/revolution_tab_ver_2.html ]
|---------------------------------------------------------------------|  |----------|
|---------------------------------------------------------------------|  |----------|
|------9---9---9--9------9---9---9--9-----6---6---6-6-----6---6---6-6-|  |-77777777-|
|-----10--10--10-10-----10--10--10-10-----7---7---7-7-----7---7---7-7-|  |-77777777-|
|------8-%-8-%-8--8------8-%-8-%-8--8-----5-%-5-%-5-5-----5-%-5-%-5-5-|  |-55555555-|
|-0-0---------------0-0---------------0-0-------------0-0-------------|  |----------|
PM. .               . .               . .             . .

Chorus "Want a revolution?"
|-----------------------------------------------------------------------------------------------|
|-----------------------------------------------------------------------------------------------|
|---------12-11-10-10-10-10----------5-5-5-5-5-5--7-7-777-12-11-10-10-10-10----------5----------|
|------------------------------------5-5-5-5-5-5--7-7-777----------------------------5----------|
|-0-0-000-10--9--8--8--8--8--3-3-333-3-3-3-3-3-3--5-5-555-10--9--8--8--8--8--3-3-333-3-5-5-5555-|
|-0-0-000--------------------3-3-333-----------------------------------------3-3-333---5-5-5555-|


|--------------------------------------------------------------------|
|--------------------------------------------------------------------|
|-----------10~----7\------------------------------------------------|
|-----------10~----7\------------------------------------------------|
|------------8~----5\-----33-333-33-33-333-333--00-000-00-00-000-000-|
|-------------------------33-333-33-33-333-333--00-000-00-00-000-000-|
PM                        .. ... .. .. ... ...  .. ... .. .. ... ...

The rest of the song is repeated above..easy! Rate/comment please.
Comments