Authority Zero - Mexican Radio Chords & Tabs

 

Mexican Radio Chords & Tabs

Authority Zero Chords & Tabs

Version: 1 Type: Tab 0 ratings
1 star 2 stars 3 stars 4 stars 5 stars
comments

Mexican Radio Tab

   
Song: Mexican Radio
Artist: Authority Zero
Album: Andiamo
Tabbed by : Christian / silent_warrior_@hotmail.com

PM - Palm mute
% - Rest
/ - Slide up
\ - Slide down


Tuning: Standard E A D G B E


Intro 0:08, 0:31, 1:06, 1:52
|----------------------------------------------------------|
|----------------------------------------------------------|
|---------------------------------------9-9999-9-----------|
|-------------------7-7777-7--5-5555-5--9-9999-9--5-5555-5-|
|-------------------7-7777-7--5-5555-5--7-7777-7--5-5555-5-|
|-------------------5-5555-5--3-3333-3------------3-3333-3-|
PM                    ....      ....      ....      ....


Verse 0:20, 1:30
|-----------------------|
|-----------------------|
|-----------9-----------|
|-7----5----9----5------|
|-7----5----7----5------|
|-5----3---------3------|


Fill 0:40, 1:15, 2:01
|-------------------------------|
|-------------------------------|
|-9---9---9---9--7---7---7---7--|
|-9---9---9---9--7---7---7---7--|
|-7-%-7-%-7-%-7--5-%-5-%-5-%-5--|
|-------------------------------|

[ Tab from: http://www.guitartabs.cc/tabs/a/authority_zero/mexican_radio_tab.html ]
Chorus 0:43, 1:18, 1:29, 2:04
|------------------------------------------------|   |-------------|
|------------------------------------------------|   |-------------|  (background)
|-9-9-9-9--4-4-4-4--7---7---7---7--7---7---7--7--|   |-------------|
|-9-9-9-9--4-4-4-4--7---7---7---7--7---7---7--7--|   |-------------|
|-7-7-7-7--2-2-2-2--5-%-5-%-5-%-5--5-%-5-%-5%-5--|   |-3/5-5-4-5-4-|
|------------------------------------------------|   |-------------|

Sound effects 0:54, 1:30
|-----------------------------------------------------------|
|-8-%-8-%-8--7-8-5-7-3-5---8-%-8-%-8-%-8--7-8-5-7-3-5-(7-8)-|  Play notes in parentheses 2nd time only
|-----------------------------------------------------------|
|-----------------------------------------------------------|
|-----------------------------------------------------------|
|-----------------------------------------------------------|


2:27 - no palm mutes
|----------------------------------------|
|----------------------------------------|
|---------------------9-9999-9-----------|
|-7-7777-7--5-5555-5--9-9999-9--5-5555-5-|
|-7-7777-7--5-5555-5--7-7777-7--5-5555-5-|
|-5-5555-5--3-3333-3------------3-3333-3-|


|-------------------------|
|-------------------------|
|-------------------------|
|--7\---------------------|
|--7\---------------------|
|--5\---------------------|
Comments