Australian Crawl - Errol Chords & Tabs

 

Errol Chords & Tabs

Australian Crawl Chords & Tabs

Version: 1 Type: Tab 0 ratings
1 star 2 stars 3 stars 4 stars 5 stars
comments

Errol Tab

ERROL - AUSTRALIAN CRAWL

heres the solo for Errol by Australin Crawl. top band

/=slide

standard tuning

E --12------10--8--10/12---13-12-8--------------------------|
B ---------------------------------8-6-5--------------------|
G --------------------------------------5-0-----------------|
D -----------------------------------------3-2--------------|
A --------------------------------------------3-------------|
E ---------------------------------------------3-1-0--------|
[ Tab from: http://www.guitartabs.cc/tabs/a/australian_crawl/errol_tab.html ]
E ---------------------0-3-3-3--5/8-8-8--10-8-7--15--10-8-7-|
B ----------------------------------------------------------|
G ----------------------------------------------------------|
D -[-1/2----------------------------------------------------|
A -----------3/2/3-]----------------------------------------|
E ----------------------------------------------------------|
 [some distortion here]

The second Bit after the pause is pretty much the same just crankin up high then descending

E --12------10--8--10/12---20--15--13-12-------------------|
B ---------------------------------------13-8-6-5----------|
G ------------------------------------------------5--------|
D ---------------------------------------------------------|
A --------------------------------------------------3/1-0--|
E ---------------------------------------------------------|

There ya have it. i'm still not too sure of the second bit. havent got me guitar
with enough frets yet. been usin the piano. any corrections or comments are
welcome. cheers.

tabbed by pattey (patteymelon@wn.com.au)
Comments