Australian Crawl - Errol Chords & Tabs

 

Errol Chords & Tabs

Australian Crawl Chords & Tabs

Version: 2 Type: Bass Tab 0 ratings
1 star 2 stars 3 stars 4 stars 5 stars
comments

Errol Bass Tab

AUSTRALIAN CRAWL - "Errol" - Bass Tab

Common Time(4/4)
Standard Tuning(EADG)

INTRO:                                            
|--------------|-------------|-------------|--------------|
|*-3-----3-r-r-|-3-----3-r-r-|-5-----5-r-r-|-5-----5-r-r-*|
|*---5-3-------|---5-3-------|---7-5-------|---7-5-------*| 
|--------------|-------------|-------------|--------------|
   1 & 2 & 3 4    1 & 2 & 3 4   1 & 2 & 3 4   1 & 2 & 3 4 

|-------------|-------------|-------------|---------.-.-|
|-3-----3-r-r-|-3-----3-r-r-|-5-----5-r-r-|-5-----5-5-5-|
|---5-3-------|---5-3-------|---7-5-------|---7-5-------| 
|-------------|-------------|-------------|-------------|
  1 & 2 & 3 4   1 & 2 & 3 4   1 & 2 & 3 4   1 & 2 & 3 4 
[ Tab from: http://www.guitartabs.cc/tabs/a/australian_crawl/errol_btab_ver_2.html ]
VERSE:
|--------------|-------------|-------------|--------------|
|*-3-----3-r-r-|-3-----3-r-r-|-5-----5-r-r-|-5-----5-r-r-*|
|*---5-3-------|---5-3-------|---7-5-------|---7-5-------*| 
|--------------|-------------|-------------|--------------|
  1 & 2 & 3 4    1 & 2 & 3 4   1 & 2 & 3 4   1 & 2 & 3 4 

CHORUS/SOLO/END:
|--------------|-------------|-----------|--------------|
|*-3-2---------|-------------|-----------|-------------*|
|*-----5-3-----|-------------|-----3-3-3-|-------0-0-0-*|
|--------------|-3-0-3-5-----|-1---------|-3---1--------|
   1 & 2 & 3 4   1 & 2 & 3 4   1 2 3 & 4   1 2 & 3 & 4

MIDDLE EIGHT:
|--------5-r-r---|-------5-r-r---|-------7-r-r---|-------7-r-r----|
|*-3---3---------|-3---3---------|-5---5---------|-5---5---------*|
|*---5---------5-|---5---------7-|---7---------7-|---7---------5-*|
|----------------|---------------|---------------|----------------|
   1 & 2 & 3 4 &   1 & 2 & 3 4 &   1 & 2 & 3 4 &   1 & 2 & 3 4 &

By: Johari Taylor
E-mail: viking@powerup.com.au
Comments