Austin Tv - El Hombre Panico Chords & Tabs

 

El Hombre Panico Chords & Tabs

Austin Tv Chords & Tabs

Version: 1 Type: Bass Tab 0 ratings
1 star 2 stars 3 stars 4 stars 5 stars
comments

El Hombre Panico Bass Tab

   
----------------------------------------------------------------------
                  EL HOMBRE PANICO – AUSTIN TV
----------------------------------------------------------------------
Dudas o correcciones
E-mail: ramirezmartinezerick@gmail.com

Tuning:G D A E

G|--------------------|
D|--------------------|
A|-5-5-5-5--8-7-------|   x8
E|--------------8-5---|

G|--------------------------------------------------|
D|-----------5/7-7-7-7-7----------------------------|
A|-5-5-5-5-5-------------7-7-7-7-7-7/12-12-12-12-12-|   x2
E|--------------------------------------------------|

G|-------------------|
D|-------------------|
A|-5-5-5-5-5-5-5-5---|
E|-------------------|

    ↓  ↑  ↓  ↑  ↓    ↓  ↑  ↓  ↑  ↓
   ↓  ↑  ↓  ↑  ↓  ↑   ↓ ↑ ↓ 
↑ ↓
G|-10-10-10-10-10----9--9--9--9--9----9--9-10--9-12--9---9-9-9-9-9|
D|-12-12-12-12-12---10-10-10-10-10---10-10-10-10-10-10---7-7-7-7-7|
A|----------------------------------------------------------------| x7
E|----------------------------------------------------------------|
Esta parte lleva un rasgueo sencillo, basta con escuchar la canción.

G|----------------------------------------------------------------|
D|----------------------------------------------------------------|
A|-8-7-8-7-7/10-10-10-10-10-10-10-10-10-10-10-12-12-12-12-12-12---| x2
E|----------------------------------------------------------------|
[ Tab from: http://www.guitartabs.cc/tabs/a/austin_tv/el_hombre_panico_btab.html ]
G|-----------------------------------------------------------------|
D|-----------------------------------------------------------------|
A|12-10-12-10-10/13-13-13-13-13-13-13-13-13-13-13-15-15-15-15-15-15|x2
E|-----------------------------------------------------------------|

Se repite esta nota durante el redoble de la batería en el cambio y  mientras tocan las 
guitarras y el teclado, el bajo solo entra cuando se escucha la batería. Escuchando la 
canción notaran cuando.
G|-------------------------------------|
D|-------------------------------------|
A|-5-5-5-5-5-5-5-5-5-5-5-5-5-5-5-5-5/0-|
E|-------------------------------------|

Justo después del último redoble se toca esto…
G|----------------------------|
D|----------------------------|
A|-5-3-5-5--------------------|  x4
E|---------3-3-3-3-1-1-1-1-1--|

Parte Final
G|---------|
D|---------|   “1,2,3,4”
A|-5-5-----|
E|---------|


G|---------------------|
D|---------------------| “1,2,3”
A|-8-8-8-8-8-7-7-7-7-7-|
E|---------------------|

G|----------------|
D|----------------|  “1,2,3,4,5”
A|-12-12-12-12-12-|
E|----------------|

G|-------------------------------------|
D|-------------------------5-5-5-7-7-7-|  “1,2”
A|-5-5-5-7-7-7-8-8-8-9-9-9-------------|
E|-------------------------------------|

G|---------|
D|---------|   “1,2,3,4”
A|-5-5-----|
E|---------|


G|---------------------|
D|---------------------| “1,2,3”
A|-8-8-8-8-8-7-7-7-7-7-|
E|---------------------|

G|----------------|
D|----------------|  “1,2,3,4,5”
A|-12-12-12-12-12-|
E|----------------|

G|-------------------------------------|
D|-7-7-7-5-5-5-------------------------|
A|-------------9-9-9-8-8-8-7-7-7-5-5-5-|
E|-------------------------------------|


| /  slide
| ↓ rasgueo hacia abajo
| ↑ rasgueo hacia arriba
Comments