Auryn - Who I Am Chords & Tabs

 

Who I Am Chords & Tabs

Auryn Chords & Tabs

Version: 2 Type: Tab 0 ratings
1 star 2 stars 3 stars 4 stars 5 stars
comments

Who I Am Tab

"Who I Am" -- Auryn
Tabbed by Kyle "Gumby"

Tuned 1/2 step down


Verse 1

Guitar 1  (Clean)
|-----------------------------------------------------------------|
|------------------------------------------------------------0----|
|------0-------0------0-------0------0-------0------0----------0--|
|----5-------0------5-------0------5-------0------5---0----4------|
|--7-----0h5------3-----0h5------7-----0h5------3-------/5--------|
|-----------------------------------------------------------------|

Guitar 2  (Clean/Light distortion)
|-----------------7----8-7---------10~----17-------15-------12-------12~----12------14--------------15~--|
|------7-8-7------8--------8-7---------------15\13----13\12-12----12-----------12------12---12---12------|
|--7-9-------9-7--9------------7h9------------------------------9-----------------9-------9----9---------|
|--------------------------------------------------------------------------------------------------------|
|--------------------------------------------------------------------------------------------------------|
|--------------------------------------------------------------------------------------------------------|

|------------------------------|
|--7-8-7-----------------------|
|--------7-9~----7-9-7---------|
|----------------------7-9~----|
|------------------------------|
|------------------------------|

================================================================================================================
Between Verse 1 and Verse 2

Guitar 1  (Distortion)
|-----------|
|-----------|
|--9--7--5--|
|--9--7--5--|
|--7--5--3--|
|-----------|

Guitar 2  (Distortion)
|--15----------------------------------------------------------------------------------------------------------|
|--------------------------xx-------xx---------------------------x---x-----------------------------------------|
|------7^(9)r-/9~--7--7-7--xx--9-9--xx--12-12--7^(9)r/9~--7--7-7-x-7-x--5-5--------------xx---------x---x------|
|-------------/9~--7--7-7--xx--9-9--xx--10-10-------------7--7-7-x-7-x--5-5----7/9-12-7--xx--4--4-4-x-4-x-5-5--|
|----------------------------------------------------------------------------7---------------------------------|
|--------------------------------------------------------------------------------------------------------------|

|-------------------------------------------|
|-------------------------------------------|
|--9/12-11-9-11-12-12^(14)r-11-12-11----9~--|
|------------------------------------12-----|
|-------------------------------------------|
|-------------------------------------------|

================================================================================================================
Verse 2

Guitar 1
Play Verse 1

Guitar 2
None

================================================================================================================
Chorus

Guitar 1
|-----------|
|-----------|
|--9--7--5--|
|--9--7--5--|
|--7--5--3--|
|-----------|

Guitar 2  (Distortion)
|--15-----------------|
|---------------------|
|------/9--14/16--12--|
|-------x---x--x---x--|
|------/7--12/14--10--|
|---------------------|
================================================================================================================
After Chorus

Guitar 1
Play Verse 1
[ Tab from: http://www.guitartabs.cc/tabs/a/auryn/who_i_am_tab_ver_2.html ]
Guitar 2  (Distortion)
|--------10--------------------------------------------|
|--/12~-----10^(11)r--8---8-7---7-8-8^(10)r-7\5\3-/5~--|
|-----------------------9-----9------------------------|
|------------------------------------------------------|
|------------------------------------------------------|
|------------------------------------------------------|

================================================================================================================
Verse 3

Guitar 1
Play Verse 1

Guitar 2
None

================================================================================================================
Solo

Guitar 1  (Distortion)
|--------------------------|
|--------------------------|
|--------3-----5--3--------|
|--7--5--3--3--5--3--3--5--|
|--7--5--1--3--3--1--3--5--|
|--5--3-----1--------1--3--|

Guitar 2  (Distortion)
|---------------------------------------------/10~-10-x-/10-10-x---------------|
|--8^(10)~-8^(10)~--8^(10)r-6-8^(10)r-6---6~--/11~-11-x-/11-11-x-11p10---------|
|---------------------------------------7------------------------------12-10~--|
|------------------------------------------------------------------------------|
|------------------------------------------------------------------------------|
|------------------------------------------------------------------------------|

|---9~--------9~--------7~--------7~------------------------------|
|--12^(13)~--12^(13)~--10^(11)~--10^(11)~-------------------------|
|------------------------------------------/10v~-10v~--/12~--12\--|
|-----------------------------------------------------------------|
|-----------------------------------------------------------------|
|-----------------------------------------------------------------|

================================================================================================================
Interlude

Guitar 1  (Clean)     (Distortion)
|--------------0----||-------------|
|----------------0--||-------------|
|------0-----0------||--9-9-xxx-9--|
|----5-----0--------||--9-9-xxx-9--|
|--7-----5----------||--7-7-xxx-7--|
|-------------------||-------------|

Guitar 2  (Clean)     (Distortion)
|--------------0----||-------------|
|------0---------0--||-------------|
|----0---0---0------||--9-9-xxx-9--|
|-------------------||--9-9-xxx-9--|
|--7-------5--------||--7-7-xxx-7--|
|-------------------||-------------|

================================================================================================================
Last Chorus

Guitar 1
Play Chorus

Guitar 2
                                          Hold bend
||-----------------------||------------------15-15---------------------------------------------------------------|
||--15^(17)r-------------||--15^(17)r-15^(17~~~~~~~)-15-13-12----------------------------------------------------|
||-----------14--14--12--||-----------------------------------14-12-11-------------/12-11-9-11----/9---/5--------|
||----------------x---x--||--------------------------------------------14-12-/14~--------------12----9----5\-2~--|
||---------------12--10--||--------------------------------------------------------------------------------------|
||-----------------------||--------------------------------------------------------------------------------------|

================================================================================================================
Not completely correct, no...but it's good enough for a start, to get
the basics and some of the more specifics right.  The last chorus is
a bit different, and the interlude isn't exact.  But this should be
decent, at least.

#^(#)  .. Bend to note in ( )
#^(#)r .. Bend to note in ( ) and release to original note
h ....... Hammer on
p ....... Pull off
~ ....... Vibrato/hold note
( ) ..... Held only for a second or hardly heard due to
          feedback, other notes picked, etc.
/........ Slide up
\........ Slide down
Comments