Auryn - What I Do Chords & Tabs

 

What I Do Chords & Tabs

Auryn Chords & Tabs

Version: 2 Type: Tab 0 ratings
1 star 2 stars 3 stars 4 stars 5 stars
comments

What I Do Tab

"What I Do" -- Auryn
Tabbed by Kyle "Gumby"

Tune 1/2 step down


Verse

Guitar 1  (Acoustic)
||--------3--3--2---------------------------------------||
||--------3--3--3---------------------------------3-----||
||--------0--0--2--0--------------------------0---0--0--||
||--------------0--0--(Guitar 2 enter)--2-----2---2--0--||
||--2--2-----------2--------------------2--2--2---3--2--||
||--3--3-----------3--------------------0--0--0------3--||

Guitar 2  (Clean)                                   Throw these in some
||---------------------------------------||-------------------||--3p0--0h3--3/5--3--||
||--3------5------3----------------------||------3------3-----||--3p0--0h3--3/5--3--||
||----4------4---------------------------||----0------0-------||--------------------||
||------5------5-------------9-----5--5--||--5------4------0--||--------------------||
||---------------------/7-10----/3----5--||-------------------||--------------------||
||------------------------------------3--||-------------------||--------------------||
======================================================================================
Chorus

Both Guitars
|-----------2--------------------------||--3--2--3--|
|--2-----0--3--------------------------||--3--3--3--|
|--2--4--0--2--------------------------||--0--2--0--|
|--2--4--2--0--5--4--5--4--2--4--5--4--||--0--0--2--|
|--0--2--3-----5--4--5--4--2--4--5--4--||--2-----3--|
|--------------3--2--3--2--0--2--3--2--||--3--------|
======================================================================================
Bridge
[ Tab from: http://www.guitartabs.cc/tabs/a/auryn/what_i_do_tab_ver_2.html ]
Both Guitars
||--------------------||-----------|
||--------------------||-----------|
||--------5--4--5-----||-----7--5--|
||--2--5--5--4--5--7--||--5--7--5--|
||--2--5--3--2--3--7--||--5--5--3--|
||--0--3-----------5--||--3--------|
======================================================================================
Solo

Guitar 1  (Acoustic)
Play Intro

Guitar 2  (Light Overdrive)
|-------------------------------------------------------------|
|------------10^(12)~-10^(12)~-10^(12)--8-7-8-----------------|
|----------------------------------------------7-5-4-5p4-3p0--|
|---------9---------------------------------------------------|
|--/7-7h9-----------------------------------------------------|
|-------------------------------------------------------------|

|------------------------------------------10^(12)-10~--/12-14-15--|
|-----3--3-----------------------------7h9-------------------------|
|--/4-------2-0---0~---------------7h9-----------------------------|
|---------------2----------7---7h9---------------------------------|
|---------------------/7h9---9-------------------------------------|
|------------------------------------------------------------------|

|--14-10--------------------------10--10--------------------------10----------------|
|--------12~--12-13p12--------/12---------10-8---8~--8-8--10^(12~~~~~)r-p8---8h10~--|
|----------------------14p12-------------------9---------------------------9--------|
|-----------------------------------------------------------------------------------|
|-----------------------------------------------------------------------------------|
|-----------------------------------------------------------------------------------|

======================================================================================
#^(#)  .. Bend to note in ( )
#^(#)r .. Bend to note in ( ) and release to original note
h ....... Hammer on
p ....... Pull off
~ ....... Vibrato/hold note
( ) ..... Held only for a second or hardly heard due to
          feedback, other notes picked, etc.
/........ Slide up
\........ Slide down
Comments