August Burns Red - Too Late For Roses Chords & Tabs

 

August Burns Red Chords & Tabs

Version: 1 Type: Tab 0 ratings
1 star 2 stars 3 stars 4 stars 5 stars
comments

Too Late For Roses Tab

   
This tab starts after 39 seconds and ends after 2:18. This is what i have figured out 
i will do the rest sometime.

Drop C-

||--------------------------------------------------------------------|
||--------------------------------------------------------------------|
||--101010101010101010101010101010101010999999999999999999------------|
||--------------------------------------------------------------------|
||--------------------------------------------------------------------|
||--------------------------------------------------------------------| x4

||--------------------------------------------------------------------|
||-----------------10---8---------------------------------------------|
||-10----10----7------------9---10p7----------------------------------|
||--------------------------------------------------------------------|
||--------------------------------------------------------------------|
||----0-0---0-0--0----0---0---0---------------------------------------|
      . .   . .  .    .   .   .
||--------------------------------------------------------------------|
||-----------------------10-8-----------------------------------------|
||-9----9----9---12-10-9------10-9p7----------------------------------|
||--------------------------------------------------------------------|
||--------------------------------------------------------------------|
||---0-0--0-0--0------------------------------------------------------|
     . .  . .  .
||--------------------------------------------------------------------|
||--------------------------------------------------------------------|
||-5----5-----4--9--7--5--4-------------------------------------------|
||--------------------------------------------------------------------|
||--------------------------------------------------------------------|
||---0-0--0-0--0--0--0--0--0------------------------------------------|
     . .  . .  .  .  .  .  .
||--------------------------------------------------------------------|
||--------------------------------------------------------------------|
||-2----2----2--------------------------------------------------------|
||--------------------------------------------------------------------|
||---------------3-3-3--5-5-5-----------------------------------------|
||---0-0--0-0--0-3-3-3--5-5-5-----------------------------------------|
     . .  . .  . . .    . .
||-------------------------------------------------------------------|
||-------------------------------------------------------------------|
||---------5-5---------5-5-----5-5-----------7-7---------7-7-----7-7-|
||-3-3-3-3-----3-3-3-3-----3-3-------5-5-5-5-----5-5-5-5-----5-5-----|
||-------------------------------------------------------------------|
||-------------------------------------------------------------------|

||---------------------------------------------------8--7--5-|
||-----------------------------------10--8--7----------------|
||---------9-9---------9-9-----9-9-------------9--7----------|
||-7-7-7-7-----7-7-7-7-----7-7-------------------------------|
||-----------------------------------------------------------|
||-----------------------------------------------------------|

||--------------------------------------------------------------------|
||--------------------------------------------------------------------|
||----------5-5---------5-5-----5-5-----------7-7---------7-7-----7-7-|
||--3-3-3-3-----3-3-3-3-----3-3-------5-5-5-5-----5-5-5-5-----5-5-----|
||--------------------------------------------------------------------|
||--------------------------------------------------------------------|


||----------------------------------------------------------------------|
||----------------------------------------------------------------------|
||-9-9-9-9-9-9-9-9-9-9-9-9-9-9-9-9--7-7-7-7-9-9-9-9-10-10-10-10-9-9-9-9-|
||----------------------------------------------------------------------|
||----------------------------------------------------------------------|
||----------------------------------------------------------------------|
[ Tab from: http://www.guitartabs.cc/tabs/a/august_burns_red/too_late_for_roses_tab.html ]
||------------------------------------------------------------------------------|
||------------------------------------------------------------------------------|
||------------------------------------------------------------------------------|
||-7-7-7-7-7-7-7-7-7-7-7-7-7-7-7-7--12-12-12-12-12-12-10-10-10-10-10-10-9-9-9-9-|
||------------------------------------------------------------------------------|
||------------------------------------------------------------------------------|

||------------------------------------------------------------------------|
||------------------------------------------------------------------------|
||-9-9-9-9-9-9-9-9-9-9-9-9-9-9-9-9--10-10-10-10-10-10-9-9-9-9-9-9-7-7-7-7-|
||------------------------------------------------------------------------|
||------------------------------------------------------------------------|
||------------------------------------------------------------------------|

||-5-5-5-5-5-5-5-5-5-5-5-5-5-5-5-5--7-7-7-7-7-7-8-8-8-8-8-8-7-7-7-7-|
||------------------------------------------------------------------|
||------------------------------------------------------------------|
||------------------------------------------------------------------|
||------------------------------------------------------------------|
||------------------------------------------------------------------|

||-5-5-5-5-5-5-5-5-5-5-5-5-5-5-5-5--8p7p5-8p7p5-8p7p5-8p7p5----|
||-------------------------------------------------------------|
||-------------------------------------------------------------|
||-------------------------------------------------------------|
||-------------------------------------------------------------|
||-------------------------------------------------------------|

||-15-15-15-15-15-15-15-15-15-15-15-15-15-15-15-15-|
||-------------------------------------------------|
||-------------------------------------------------|
||-------------------------------------------------|
||-------------------------------------------------|
||-------------------------------------------------|

||-13-13-13-13-13-13-12-12-12-12-12-12-10-10-10-10-|
||-------------------------------------------------|
||-------------------------------------------------|
||-------------------------------------------------|
||-------------------------------------------------|
||-------------------------------------------------|

||-8-8-8-8-8-8-8-8-8-8-8-8-8-8-8-8--7-7-7-7-7-7-8-8-8-8-8-8-7-7-7-7-|
||------------------------------------------------------------------|
||------------------------------------------------------------------|
||------------------------------------------------------------------|
||------------------------------------------------------------------|
||------------------------------------------------------------------|

||-15-15-15-15-15-15-15-15-15-15-15-15-15-15-15-15-|
||-------------------------------------------------|
||-------------------------------------------------|
||-------------------------------------------------|
||-------------------------------------------------|
||-------------------------------------------------|

||-13-13-13-13-13-13-12-12-12-12-12-12-10-10-10-10-|
||-------------------------------------------------|
||-------------------------------------------------|
||-------------------------------------------------|
||-------------------------------------------------|
||-------------------------------------------------|

||-20-20-20-20-20-20-20-20-20-20-20-20-20-20-20-20-|
||-------------------------------------------------|
||-------------------------------------------------|
||-------------------------------------------------|
||-------------------------------------------------|
||-------------------------------------------------|

||-20-20-20-20-20-20-20-20-20-20-20-20-20-20-20-20-|
||-------------------------------------------------|
||-------------------------------------------------|
||-------------------------------------------------|
||-------------------------------------------------|
||-------------------------------------------------|

||-----------------------------------------------------------------------|
||-----------------------------------------------------------------------|
||-----------9-----------------9-----------------9---------------9-------|
||------10---------------10----------------10---------10----10--------10-|
||-8--8----8------10--10----10------12--12----12---12----12----12--12----|
||-----------------------------------------------------------------------| x4

||-----------------------------------------------------------------|
||-----------------------------------------------------------------|
||-----------------------------------------------------------------|
||-----------------------------------------------------------------|
||-7----------------3--------2-------------------------------------|
||-7----------------3--------2-------------------------------------|

Thanks!
Comments