August Burns Red - Speech Inpediment Chords & Tabs

 

Speech Inpediment Chords & Tabs

August Burns Red Chords & Tabs

Version: 1 Type: Tab

Speech Inpediment Tab

   
Band:  August Burns Red
Album: Thrill Seeker
Song:  Speech Inpediment

Copyright (c)  Solid State(2005)
Version 1.0 -  28.01.2006

Transcribed By: Taavi
Email:          tafka@trustkill.net


Tuning C G C F A D

Guitar I
|-------------------------------------------------------------------------|
|-------------------------------------------------------------------------|
|-------------------------------------------------------------------------|
|-15-14-------15-14-------15-14-------15-14-------15-14-------15-14-------|
|-------15-17-------15-17-------15-17-------15-17-------15-17-------15-17-|
|-------------------------------------------------------------------------|

Guitar II
|-------------------------------------------------------------------------|
|-------------------------------------------------------------------------|
|-------------------------------------------------14-12-------14-12-------|
|-------------------------------------------------------14-15-------14-15-|
|-------------------------------------------------------------------------|
|-------------------------------------------------------------------------|

Guitar I
|-------------------------------------------------------------------------|
|-------------------------------------------------------------------------|
|-------------------------------------------------------------------------|
|-15-14-------15-14-------15-14-------15-14-------15-14-------15-14-------|
|-------15-17-------15-17-------15-17-------15-17-------15-17-------15-17-|
|-------------------------------------------------------------------------|

Guitar II
|-------------------------------------------------------------------------|
|-------------------------------------------------------------------------|
|-14-12-------14-12-------14-12-------14-12-------14-12-------14-12-------|
|-------14-15-------14-15-------14-15-------14-15-------14-15-------14-15-|
|-------------------------------------------------------------------------|
|-------------------------------------------------------------------------|

Guitar I
|-------------------------------------------------------------------------|
|-------------------------------------------------------------------------|
|-------------------------------------------------------------------------|
|-15-14-------15-14-------15-14-------15-14-------15-14-------15-14-------|
|-------15-17-------15-17-------15-17-------15-17-------15-17-------15-17-|
|-------------------------------------------------------------------------|

Guitar II
|-------------------------------------------------------------------------|
|-------------------------------------------------------------------------|
|-14-12-------14-12-------14-12-------14-12-------14-12-------14-12-------|
|-------14-15-------14-15-------14-15-------14-15-------14-15-------14-15-|
|-------------------------------------------------------------------------|
|-------------------------------------------------------------------------|
[ Tab from: http://www.guitartabs.cc/tabs/a/august_burns_red/speech_inpediment_tab.html ]
Guitar I
|-------------------------------------------------------------------------|
|-------------------------------------------------------------------------|
|-------------------------------------------------------------------------|
|-15-14-------15-14-------15-14-------15-14-------15-14-------15-14-------|
|-------15-17-------15-17-------15-17-------15-17-------15-17-------15-17-|
|-------------------------------------------------------------------------|

Guitar II
|-------------------------------------------------------------------------|
|-------------------------------------------------------------------------|
|-14-12-------14-12-------14-12-------14-12-------14-12-------14-12-------|
|-------14-15-------14-15-------14-15-------14-15-------14-15-------14-15-|
|-------------------------------------------------------------------------|
|-------------------------------------------------------------------------|

Guitar I
|-------------------------------------------------------------------------|
|-------------------------------------------------------------------------|
|-------------------------------------------------------------------------|
|-15-14-------15-14-------15-14-------15-14-------15-14-------15-14-------|
|-------15-17-------15-17-------15-17-------15-17-------15-17-------15-17-|
|-------------------------------------------------------------------------|

Guitar II 

|-------------------------------------------------------------------------|
|-------------------------------------------------------------------------|
|-------------------------------------------------------------------------|
|-------------------------------------------------------------------------|
|-8------------------------------------8--7--5--3-0-----------------------|
|-8------------------------------------8--7--5--3-0-----------------------|
                                       .  .  .  .

Guitar I
|-------------------------------------------------------------------------|
|-------------------------------------------------------------------------|
|-------------------------------------------------------------------------|
|-15-14-------15-14-------15-14-------15-14-------15-14-------15-14-------|
|-------15-17-------15-17-------15-17-------15-17-------15-17-------15-17-|
|-------------------------------------------------------------------------|

Guitar II 

|-------------------------------------------------------------------------|
|-------------------------------------------------------------------------|
|-------------------------------------------------------------------------|
|-------------------------------------------------------------------------|
|-3-----------------------8-----------------------------------8--7--5--3--|
|-3-----------------------8-----------------------------------8--7--5--3--|
                                                              .  .  .  .

Guitar I
|-------------------------------------------------------------------------|
|-------------------------------------------------------------------------|
|-------------------------------------------------------------------------|
|-15-14-------15-14-------15-14-------15-14-------------------------------|
|-------15-17-------15-17-------15-17-------15-17-------------------------|
|-------------------------------------------------------------------------|

Guitar II 

|-------------------------------------------------------------------------|
|-------------------------------------------------------------------------|
|-------------------------------------------------------------------------|
|-------------------------------------------------------------------------|
|-0-----------------------3-----------------------------------------------|
|-0-----------------------3-----------------------------------------------|
                                                              


That's all for now... Should be correct.

Tafka

THE END