August Burns Red - Eve Of The End Chords & Tabs

 

Eve Of The End Chords & Tabs

August Burns Red Chords & Tabs

Version: 1 Type: Tab

Eve Of The End Tab

this song isnt that hard, i figured it out in like  5 minutes.

*=palm mute



e-------------------            e---------11-11-11-11-------|
b-------------------            b---------------------------|
g---------12-12-12-12    8x     g---------12-12-12-12-------|      8x
d-0--0-0--10-10-10-10           d-0--0-0--10-10-10-10-------|
a-0--0-0------------            a-0--0-0--------------------|
D-0--0-0------------            D-0--0-0--------------------|
  *  * *                          *  * *

b--------------------------------|
g--------------------------------|
d-8-8-8-8-8-8--10-10-10-10-10-10-|
a-5-5-5-5-5-5--5--5--5--5--5--5--|
D-5-5-5-5-5-5--5--5--5--5--5--5--|

e--------------------------|
b--------------------------|
g--------------------------|
d-7-7-7-7-7-7--9-9-9-9-9-9-|
a-4-4-4-4-4-4--4-4-4-4-4-4-|
D-4-4-4-4-4-4--4-4-4-4-4-4-|

e-----------------------------|
b-----------------------------|
g-----------12-12-12-12-------|      4x
d-0--0-0----10-10-10-10-------|
a-0--0-0----------------------|
D-0--0-0----------------------|
  *  * *


b--------------------------------|
g--------------------------------|
d-8-8-8-8-8-8--10-10-10-10-10-10-|
a-5-5-5-5-5-5--5--5--5--5--5--5--|
D-5-5-5-5-5-5--5--5--5--5--5--5--|


e--------------------------|
b--------------------------|
g--------------------------|
d-7-7-7-7-7-7--9-9-9-9-9-9-|
a-4-4-4-4-4-4--4-4-4-4-4-4-|
D-4-4-4-4-4-4--4-4-4-4-4-4-|


e-----------------------------|
b-----------------------------|
g-----------12-12-12-12-------|      4x
d-0--0-0----10-10-10-10-------|
a-0--0-0----------------------|
D-0--0-0----------------------|
  *  * *


b--------------------------------|
g--------------------------------|
d-8-8-8-8-8-8--10-10-10-10-10-10-|
a-5-5-5-5-5-5--5--5--5--5--5--5--|
D-5-5-5-5-5-5--5--5--5--5--5--5--|


e--------------------------|
b--------------------------|
g--------------------------|
d-7-7-7-7-7-7--9-9-9-9-9-9-|
a-4-4-4-4-4-4--4-4-4-4-4-4-|
D-4-4-4-4-4-4--4-4-4-4-4-4-|

[ Tab from: http://www.guitartabs.cc/tabs/a/august_burns_red/eve_of_the_end_tab.html ]
e-----------11-11-11-11-------|
b-----------------------------|
g-----------12-12-12-12-------|      4x
d-0--0-0----10-10-10-10-------|
a-0--0-0----------------------|
D-0--0-0----------------------|
  *  * *

b--------------------------------|
g--------------------------------|
d-8-8-8-8-8-8--10-10-10-10-10-10-|
a-5-5-5-5-5-5--5--5--5--5--5--5--|
D-5-5-5-5-5-5--5--5--5--5--5--5--|

e--------------------------|
b--------------------------|
g--------------------------|
d-7-7-7-7-7-7--9-9-9-9-9-9-|
a-4-4-4-4-4-4--4-4-4-4-4-4-|
D-4-4-4-4-4-4--4-4-4-4-4-4-|

(clean)
e----------------------               e---------11-11-11-11------|
b----------------------               b---------12-12-12-12------|
g----------------------      2x       g----0----10-10-10-10------|     4x
d-8-8-8-8--10-10-10-10-               d---0----------------------|
a-5-5-5-5--5--5--5--5--               a--0-----------------------|
D----------------------               D-0------------------------|

e----------------------               e---------11-11-11-11------|
b----------------------               b---------12-12-12-12------|
g----------------------      2x       g----0----10-10-10-10------|     4x
d-8-8-8-8--10-10-10-10-               d---0----------------------|
a-5-5-5-5--5--5--5--5--               a--0-----------------------|
D----------------------               D-0------------------------|

e----------------------|
b----------------------|
g----------------------|
d-8-8-8-8--10-10-10-10-|
a-5-5-5-5--5--5--5--5--|
D----------------------|


e-----------------------------------------------|
b-----------------------------------------------|
g-----------------------------------------------|
d------------------9-9-9-9--9-9-9-9-9-9-9-9-----|
a-7-7-7-7-7-7-7-7--7-7-7-7--7-7-7-7-7-7-7-7 <---|
D-7-7-7-7-7-7-7-7--7-7-7-7--7-7-7-7-7-7-7-7  ---|
                            * * * * * * * *   |
                            w/ distortion ----

e-11-11-11-11-11-11-----------|
b-----------------------------|
g-12-12-12-12-12-12-----------|     until end
d-10-10-10-10-10-10--0-0------|
a--------------------0-0------|
D--------------------0-0------|
                     * *

this is my first tab, and i hope you enjoy it.