August Burns Red - Consumer Chords & Tabs

 

August Burns Red Chords & Tabs

Version: 2 Type: Tab 0 ratings
1 star 2 stars 3 stars 4 stars 5 stars
comments

Consumer Tab

   
----------------------------------------------------------------------------
	             "Consumer" - August Burns Red
----------------------------------------------------------------------------

Artist: August Burns Red
Song: "Consumer"
Album: Thrill Seeker
Tabbed by: Joe
Email: DrNick311@gmail.com

Bear with me - it's long, but fairly accurate.
Best enjoyed with two guitars.

If you have any suggestions that sound more accurate, please post them.

Tuning: Drop C (CGCFAD)

0:00 ("A front seat, to your own flick...") - Repeat 2X
Guitar 1
D|-------------------------------------------------------------------------|
A|-------------------------------------------------------------------------|
F|-------------------------------------------------------------------------|
C|-------------5h8--------------------------------5h8----------------------|
G|-3h5-------------------5-8p7h8p7/3-3h5--3h5-----------------5-8--6-0-5-0-|
C|-----0-0-0-0-----0-0------------------------0-0-----0-0-0-0------6-0-5-0-|
       * * * *     * *                        * *     * * * *      * * * *
       
Guitar 2
D|-------------------------------------------------------------------------|
A|-------------------------------------------------------------------------|
F|-------------------------------------------------------------------------|
C|-------------------------------------------------------------------------|
G|-----0-0-0-0-----0-0------------------------0-0-----0-0-0-0------6-0-5-0-|
C|-----0-0-0-0-----0-0------------------------0-0-----0-0-0-0------6-0-5-0-|
                                                                   * * * *
                                                                   
                                                                   
0:15 ("If only you could see...")                                                          
Guitar 1
D|-------------------------------------------------------------------------|
A|-------------------------------------------------------------------------|
F|-------------------------------------------------------------------------|
C|-------------5h8--------------------------------5h8----------------------|
G|-3h5-------------------5-8p7h8p7/3-3h5--3h5-----------------5-8--6-0-5/3-|
C|-----0-0-0-0-----0-0-0----------------------0-0-----0-0-0-0------6-0-5/3-|
       * * * *     * * *                      * *     * * * *      * * * *

Guitar 2
D|-------------------------------------------------------------------------|
A|-------------------------------------------------------------------------|
F|-------------------------------------------------------------------------|
C|-------------------------------------------------------------------------|
G|-----0-0-0-0-----0-0------------------------0-0-----0-0-0-0------6-0-5/3-|
C|-----0-0-0-0-----0-0------------------------0-0-----0-0-0-0------6-0-5/3-|
                                                                   * * * *


0:21
Guitar 1/2
D|-------------------------------------------------------------------------|
A|-------------------------------------------------------------------------|
F|-------------------------------------------------------------------------|
C|-------------------------------------------------------------------------|
G|-0--5-3-0-6-5-3-5-3-0-6-5-3-5-3-0-6-5-3-0--------------------------------|
C|-0--5-3-0-6-5-3-5-3-0-6-5-3-5-3-0-6-5-3-0--------------------------------|


0:27                       0:31 
Guitar 1                   Repeat 2X
D|------------------------|------------------------------------------------|
A|------------------------|------------------------------------------------|
F|------------------------|-3333111444--3333111444-------------------------|
C|------------------------|------------------------------------------------|
G|------------------------|------------------------------------------------|
C|------------------------|------------------------------------------------|

Guitar 2 - Repeat 2X       Repeat 2X
D|------------------------|------------------------------------------------|
A|------------------------|------------------------------------------------|
F|------------------------|------------------------------------------------|
C|------------------------|------------------------------------------------|
G|-0--5-3-5-6--0--5-3-5-6-|-0--5-3-5-6--0--5-3-5-6-------------------------|
C|-0--5-3-5-6--0--5-3-5-6-|-0--5-3-5-6--0--5-3-5-6-------------------------|


0:36 - Repeat 4X ("And are ready to...") 0:58
Guitar 1/2
D|-------------------------------------|-----------------------------------|
A|-------------------------------------|-----------------------------------|
F|-------------------------------------|-----------------------------------|
C|-------------------------------------|-0~-\\\\\\\\\\\\\\\\\\\\\\\\\\\\\\-|
G|-0--0-0-000-0--0-0-000--00-00--00000-|-0~-\\\\\\\\\\\\\\\\\\\\\\\\\\\\\\-|
C|-0--0-0-000-0--0-0-000--00-00--00000-|-0~-\\\\\\\\\\\\\\\\\\\\\\\\\\\\\\-|
   *  * * *** *  * * ***  ** **  *****
 

 
1:00 - Repeat 2X ("Let's watch where it takes you...")
Guitar 1
D|-----------------------5-5-5-----------------5-5-5-5-5-5-5-5-------------|
A|-----------------------6-6-6-----------------6-6-6-6-6-6-6-6-------------|
F|----------------5------5-5-5-----------------5-5-5-5-5-5-5-5-------------|
C|---7---8p7p5------7----5-5-5------8---10p8---5-5-5-5-5-5-5-5-------------|
G|-5---5-------8------8------------------------5-5-5-5-5-5-5-5-------------|
C|--------------------------------8---8------8-5-5-5-5-5-5-5-5-------------|


Guitar 2
D|-------------------------------------------------------------------------|
A|-------------------------------------------------------------------------|
F|-------------------------------------------------------------------------|
C|-------------------------------------------------------------------------|
G|-0--0-0-----0------0--0-0---0---8--8-8-----8------8--8-8---8-------------|
C|-0--0-0-----0------0--0-0---0---8--8-8-----8------8--8-8---8-------------|
      * *     *         * *          * *     *         * *   *


1:11 - Repeat 2X ("You really don't have it that bad...")
Guitar 1
D|-----------------------5-5-5-----------------5-5-5-5-5-5-5-5-------------|
A|-----------------------6-6-6-----------------6-6-6-6-6-6-6-6-------------|
F|----------------5------5-5-5-----------------5-5-5-5-5-5-5-5-------------|
C|---7---8p7p5------7----5-5-5------8---10p8---5-5-5-5-5-5-5-5-------------|
G|-5---5-------8------8------------------------5-5-5-5-5-5-5-5-------------|
C|--------------------------------8---8------8-5-5-5-5-5-5-5-5-------------|


Guitar 2
D|----------------5------5-5-5-----------------5-5-5-5-5-5-5-5-------------|
A|---6---8p6p5------6----6-6-6-----------------6-6-6-6-6-6-6-6-------------|
F|-------------7------7--5-5-5-----10--12p10---5-5-5-5-5-5-5-5-------------|
C|-----------------------5-5-5-----------------5-5-5-5-5-5-5-5-------------|
G|-5---5---------------------------------------5-5-5-5-5-5-5-5-------------|
C|--------------------------------8---8------8-5-5-5-5-5-5-5-5-------------|


1:22 - Repeat 4X ("... show you truth")
Guitar 1
D|-------------------------------------------------------------------------|
A|-------------------------------------------------------------------------|
F|-------------------------------------------------------------------------|
C|-------------5h7---------------------------------------------------------|
G|-3h5-------------------5-8p7h10p8/3--------------------------------------| 
C|-----0-0-0-0-----0-0-----------------------------------------------------|
       * * * *     * *                                          

Guitar 2
D|-------------------------------------------------------------------------|
A|-------------------------------------------------------------------------|
F|-------------------------------------------------------------------------|
C|-------------------------------------------------------------------------|
G|-----0-0-0-0-----0-0-----------------------------------------------------|
C|-----0-0-0-0-----0-0-----------------------------------------------------|
       * * * *     * *

1:32 - Repeat 4X ("... committed the crime")   1:44
Guitar 1
D|--------------------------------------------|----------------------------|
A|--------------------------------------------|------------777-------------|
F|--------------------------------------------|---------------807035-------|
C|-------------5h7----------------------------|-0~-------X-----------------|
G|-3h5-0-0---------0-0---5-8p7h10p8/3---------|-0~-------X-----------------| 
C|-----0-0---------0-0------------------------|-0~-------X-----------------|
       * *         * *

Guitar 2
D|--------------------------------------------|----------------------------|
A|--------------------------------------------|----------------------------|
F|-------------------------2p0h3p2------------|----------------------------|
C|-2h3-------------------3---------2----------|-0~-------X-----------------|
G|-----0-0-3h5-----0-0------------------------|-0~-------X-----------------| 
C|-----0-0---------0-0------------------------|-0~-------X-----------------|
       * *         * *

1:46 ("But what we...")
Guitar 1
D|-------------------------------------------------------------------------|
A|-------------------------------------------------------------------------|
F|--------10-10-10-10-10-10-10-10-10-------7--5/7----9/10----10/3----------|
C|--------8--8--8--8--8--8--8--8--8----------------------------------------|
G|-8-8-8--8--8--8--8--8--8--8--8--8--0-0---5--3/5----7/8------8/5----------|
C|-8-8-8--8--8--8--8--8--8--8--8--8--0-0-----------------------------------|
                                     * *

Guitar 2
D|-------------------------------------------------------------------------|
A|-------------------------------------------------------------------------|
F|--------10-10-10-10-10-10-10-10-10---------------------------------------|
C|--------8--8--8--8--8--8--8--8--8----------------------------------------|
G|-8-8-8--8--8--8--8--8--8--8--8--8--0-0-0~--------------------------------|
C|-8-8-8--8--8--8--8--8--8--8--8--8--0-0-0~--------------------------------|
                                     * * 

Guitar 1/2
D|-------------------------------------------------------------------------|
A|-------------------------------------------------------------------------|
F|-------------7-7-7-7-7-7-7-7---------------------------------------------|
C|-------------5-5-5-5-5-5-5-5---------------------------------------------|
G|-5--5-5-5-5--5-5-5-5-5-5-5-5--0-0-0--0-0-0-0-0--0-0-0-0-0--0-0-0-0-0-0-0-|
C|-5--5-5-5-5--5-5-5-5-5-5-5-5--0-0-0--0-0-0-0-0--0-0-0-0-0--0-0-0-0-0-0-0-|
[ Tab from: http://www.guitartabs.cc/tabs/a/august_burns_red/consumer_tab_ver_2.html ]
1:57 - Repeat 2X
Guitar 1
D|-------------------------------------------------------------------------|
A|-------------------------------------------------------------------------|
F|--------10-10-10-10-10-10-10-10-10-------7--5/7----9/10----10/3----------|
C|--------8--8--8--8--8--8--8--8--8----------------------------------------|
G|-8-8-8--8--8--8--8--8--8--8--8--8--0-0---5--3/5----7/8------8/5----------|
C|-8-8-8--8--8--8--8--8--8--8--8--8--0-0-----------------------------------|
                                     * *

Guitar 2
D|-------------------------------------------------------------------------|
A|-------------------------------------------------------------------------|
F|--------10-10-10-10-10-10-10-10-10-------10-9/10--12/14----14/9----------|
C|--------8--8--8--8--8--8--8--8--8----------------------------------------|
G|-8-8-8--8--8--8--8--8--8--8--8--8--0-0---8--7/8---10/12----12/7----------|
C|-8-8-8--8--8--8--8--8--8--8--8--8--0-0-----------------------------------|
                                     * *

Guitar 1/2                      1st Time Only, 2nd Time Go to Next Bar
D|-----------------------------|-------------------------------------------|
A|-----------------------------|-------------------------------------------|
F|-------------7-7-7-7-7-7-7-7-|-------------------------------------------|
C|-------------5-5-5-5-5-5-5-5-|-------------------------------------------|
G|-5--5-5-5-5--5-5-5-5-5-5-5-5-|0-0-0--0-0-0-0-0--0-0-0-0-0--0-0-0-0-0-0-0-|
C|-5--5-5-5-5--5-5-5-5-5-5-5-5-|0-0-0--0-0-0-0-0--0-0-0-0-0--0-0-0-0-0-0-0-|
                                * *    * * * *    * * * *    * * * * * * *

2:16 - Repeat 2X ("Everyone is full of it...")
Guitar 1/2
D|-------------------------------------------------------------------------|
A|-------------------------------------------------------------------------|
F|--------------------------------------------------------7/5--9/10--------|
C|-------------------------------------------------------------------------|
G|-0-0-0-0-0--3~--0-0--0-0--0-0--0-0-0-0-0--3~--0-0--0-0--5/3--7/8---------|
C|-0-0-0-0-0--3~--0-0--0-0--0-0--0-0-0-0-0--3~--0-0--0-0-------------------|
                  * *  * *  * *                 * *  * * 

2:28
Guitar 1/2
D|-------------------------------------------------------------------------|
A|-------------------------------------------------------------------------|
F|--------------------------14-14-12/14---------------------------7/5--9/10|
C|-------------------------------------------------------------------------|
G|-0-0-0-0-0--3~--0-0--0-0--12-12-10/12--0-0-0-0-0--3~--0-0--0-0--5/3--7/8-|
C|-0-0-0-0-0--3~--0-0--0-0---------------0-0-0-0-0--3~--0-0--0-0-----------|
                  * *  * *                              * *  * *

2:40
Guitar 1
D|-------------------------------------------------------------------------|
A|-------------------------------------------------------------------------|
F|---------5/7----------7/9----------9/10---------10/9---------------------|
C|-------------------------------------------------------------------------|
G|---------3/5----------5/7----------7/8-----------8/7---------------------|
C|-0-0-0-0------0-0-0-0------0-0-0-0-------0-0-0-0-------------------------|

Guitar 2
D|-------------------------------------------------------------------------|
A|-------------------------------------------------------------------------|
F|---------9/10--------10/12---------12/14---------14/9--------------------|
C|-------------------------------------------------------------------------|
G|---------7/8----------8/10---------10/12---------12/7--------------------|
C|-0-0-0-0------0-0-0-0------0-0-0-0-------0-0-0-0-------------------------|

2:43 - Repeat 2X
Guitar 1
D|-------------------------------------------------------------------------|
A|-------------------------------------------------------------------------|
F|-------10p7------------------------------10p7----------------------------|
C|-7h8p7------8p7h8p7-------7h8p7----7h8p7------8p7h8p7-------7h8p7--------|
G|--------------------8p7h8-------8---------------------8p7h8-------8------|
C|-------------------------------------------------------------------------|

Guitar 2
D|-------------------------------------------------------------------------|
A|-------------------------------------------------------------------------|
F|-------------10-10-10-10-10-10-10--------------10-10-10-10-10-10-10------|
C|-------------8--8--8--8--8--8--8---------------0--0--0--0--0--0--0-------|
G|-8-8-8--X--8-8--8--8--8--8--8--8---0-0-0--X--0-0--0--0--0--0--0--0-------|
C|-8-8-8--X--8-8--8--8--8--8--8--8---0-0-0--X--0-0--0--0--0--0--0--0-------|

2:54 - Repeat 2X ("A young boy...")
Guitar 1
D|-5h6p5-13p10-6p5h6p5------5h6p5----5h6p5-13p10-6p5h6p5------5h6p5--------|
A|--------------------6p5h6-------6---------------------6p5h6-------6------|
F|-------------------------------------------------------------------------|
C|-------------------------------------------------------------------------|
G|-------------------------------------------------------------------------|
C|-------------------------------------------------------------------------|

Guitar 2
D|-------------------------------------------------------------------------|
A|-------------------------------------------------------------------------|
F|-------------10-10-10-10-10-10-10--------------10-10-10-10-10-10-10------|
C|-------------8--8--8--8--8--8--8---------------0--0--0--0--0--0--0-------|
G|-8-8-8--X--8-8--8--8--8--8--8--8---0-0-0--X--0-0--0--0--0--0--0--0-------|
C|-8-8-8--X--8-8--8--8--8--8--8--8---0-0-0--X--0-0--0--0--0--0--0--0-------|

3:05 ("And this boy...")
Guitar 1
D|-------------------------------------------------------------------------|
A|-------------------------------------------------------------------------|
F|-10-10-10-10-10-10-10-10--9-9-9-9--7-7-7-7--14-14-14-14-14-14-14-14------|
C|-------------------------------------------------------------------------|
G|-8--8--8--8--8--8--8--8---7-7-7-7--5-5-5-5--12-12-12-12-12-12-12-12------|
C|-------------------------------------------------------------------------|

Guitar 2
D|-------------------------------------------------------------------------|
A|-------------------------------------------------------------------------|
F|-------------------------------------------------------------------------|
C|-------------------------------------------------------------------------|
G|-8-8-8-8-8-8-8-8-8-8-8-8-8-8-8-8-8-8-8-8-8--0-0-0-0-0-0-0-0-0-0-0-0------|
C|-8-8-8-8-8-8-8-8-8-8-8-8-8-8-8-8-8-8-8-8-8--0-0-0-0-0-0-0-0-0-0-0-0------|

Guitar 1
D|-------------------------------------------------------------------------|
A|-------------------------------------------------------------------------|
F|-15-15-15-15--17-17-17-17--15-15-15-15-15-15-15-15-15-15-15-15-15-15-15--|
C|-------------------------------------------------------------------------|
G|-13-13-13-13--15-15-15-15--13-13-13-13-13-13-13-13-13-13-13-13-13-13-13--|
C|-------------------------------------------------------------------------|

Guitar 2
D|-------------------------------------------------------------------------|
A|-------------------------------------------------------------------------|
F|-------------------------------------------------------------------------|
C|-------------------------------------------------------------------------|
G|-0-0-0-0-0-0-0-0-0-0-0-0---8-8-8-8-8-8-8-8-8-8-8-8-8-8-8-8-8-8-8-8-8-----|
C|-0-0-0-0-0-0-0-0-0-0-0-0---8-8-8-8-8-8-8-8-8-8-8-8-8-8-8-8-8-8-8-8-8-----|

Guitar 1
D|-------------------------------------------------------------------------|
A|-------------------------------------------------------------------------|
F|-7-7-7-7-7-7-7-7--9-9-9-9--10-10-10-10-10-10-10--------------------------|
C|-------------------------------------------------------------------------|
G|-5-5-5-5-5-5-5-5--7-7-7-7--8--8--8--8--8--8--8---------------------------|
C|-------------------------------------------------------------------------|

Guitar 2
D|-------------------------------------------------------------------------|
A|-------------------------------------------------------------------------|
F|-------------------------------------------------------------------------|
C|-------------------------------------------------------------------------|
G|-0-0-0-0-0-0-0-0-0-0-0-0-0-0-0-0-0-0-0-0-0-0-0-0-------------------------|
C|-0-0-0-0-0-0-0-0-0-0-0-0-0-0-0-0-0-0-0-0-0-0-0-0-------------------------|

3:17 - Repeat 2X("... Life will pass us by")
Guitar 1
D|-5h6p5-13p10-6p5h6--5h6p5-13p10-6p5h6------------------------------------|
A|-------------------------------------------------------------------------|
F|-------------------------------------------------------------------------|
C|-------------------------------------------------------------------------|
G|-------------------------------------------------------------------------|
C|-------------------------------------------------------------------------|

Guitar 2
D|-------------------------------------------------------------------------|
A|-------------------------------------------------------------------------|
F|-----------------------------------------------10-----9------12--10-10-10|
C|-------------------------------------------------------------------------|
G|-8-8-8-8-8-8-8-8-8-8-8-8-8-8-8-8-8-8--0-0-0-0--8-0-0--7-0-0--10--8--8--8-|
C|-8-8-8-8-8-8-8-8-8-8-8-8-8-8-8-8-8-8--0-0-0-0----0-0----0-0--------------|
                                        * * * *    * *    * *

Guitar 1
D|------------------------------------5h6p5-13p10-6p5h6--5h6p5-13p10-6p5h6-|
A|-------------------------------------------------------------------------|
F|-------------------------------------------------------------------------|
C|-------10p7---------------10p7-------------------------------------------|
G|-7h8p7------8p7h8---7h8p7------8p7h8-------------------------------------|
C|-------------------------------------------------------------------------|

Guitar 2
D|-------------------------------------------------------------------------|
A|-------------------------------------------------------------------------|
F|-------------------------------------------------------------------------|
C|-------------------------------------------------------------------------|
G|-8-8-8-8-8-8-8-8-8-8-8-8-8-8-8-8-8-8--0-0-0-0--0-0-0--0-0-0--0--0-0-0-0--|
C|-8-8-8-8-8-8-8-8-8-8-8-8-8-8-8-8-8-8--0-0-0-0--0-0-0--0-0-0--0--0-0-0-0--|
                                        * * * *    * *    * *


Guitar 1
D|-5~--13~--12-----------------------13~--12--15---------------------------|
A|-------------13------11-10----10~----------------------------------------|
F|---------------------------10--------------------------------------------|
C|----------------12~----------------------------0~------------------------|
G|-----------------------------------------------0~------------------------|
C|-----------------------------------------------0~------------------------|

Guitar 2
D|-------------------------------------------------------------------------|
A|-------------------------------------------------------------------------|
F|-10~--------------------------10~----------------------------------------|
C|-8~-------------0~------------8~---------------0~------------------------|
G|-8~-------------0~------------8~---------------0~------------------------|
C|-8~-------------0~------------8~---------------0~------------------------|

NOTATION:
/ | slide (up or down on neck)
\ | pick slide
h | hammer-on
p | pull-off
~ | hold note
X | Mute note
* | palm mute
============================================================================
Comments