August Burns Red - Consumer Chords & Tabs

 

Consumer Chords & Tabs

August Burns Red Chords & Tabs

Version: 1 Type: Tab

Consumer Tab

   
This is not the hole tab, but enjoy what ive got.

Drop C-
[ Tab from: http://www.guitartabs.cc/tabs/a/august_burns_red/consumer_tab.html ]
||------------------------------------------------------------------|
||------------------------------------------------------------------|
||------------------------------------------------------------------|
||-------------5h8-----0-3-2-0-------------5h8----------------------|
||-3h5-------------------------5-0-3h5-----------------3h6--6-3-5-3-|
||-----000-000-----000-----------------000-----000-000------6-3-5-3-|
       ... ...     ...                 ...     ... ...      . . . .
||------------------------------------------------------------------|
||------------------------------------------------------------------|
||------------------------------------------------------------------|
||------------------------------------------------------------------|
||-6-3-5-3-0-6-3-5-3-0-6-3-5-3-0-6-3-5-3-0-6-3-5-3-0-6-3-5-3-0------|
||-6-3-5-3-0-6-3-5-3-0-6-3-5-3-0-6-3-5-3-0-6-3-5-3-0-6-3-5-3-0------|
   . . . . . . . . . . . . . . . . . . . . . . . . . . . . . .
||------------------------------------------------------------------|
||------------------------------------------------------------------|
||------------------------------------------------------------------|
||------------------------------------------------------------------|
||-0-5-3-0-6-0-0-5-3-0-6-0-0-5-3-0-6-0-0-5-3-0-6-0------------------|
||-0-5-3-0-6-0-0-5-3-0-6-0-0-5-3-0-6-0-0-5-3-0-6-0------------------|
   . . . . . . . . . . . . . . . . . . . . . . . .
||------------------------------------------------------------------|
||------------------------------------------------------------------|
||------------------------------------------------------------------|
||------------------------------------------------------------------|
||-0000000----0000--0-0--0-0----------------------------------------|
||-0000000----0000--0-0--0-0----------------------------------------|
   .......    ....  . .  . .

  Guitar I
||------------------------------------------------------------------|
||------------------------------------------------------------------|
||--------------------------10-10-------------------10101010101010--|
||---7-----8p7-------10p7---7--7----8-----10p8---7--7-7-7-7-7-7-7---|
||---------------8----------8--8-----------------8--8-8-8-8-8-8-8---|
||-0---0-0-----0---0------0-------8---8-8------8--------------------|
   .   . .     .   .      .       .   . .      .

  Guitar II
||-------------------------------------------------------------------------|
||-------------------------------------------------------------------------|
||---10-----12p10--------14p10---10--10---10-----12p10---10-10101010101010-|
||------------------12-----------12--12------------------12-12121212121212-|
||-------------------------------------------------------------------------|
||-0----0-0-------0----0-------0--------8----8-8-------8-------------------|
   .    . .       .    .       .        .    . .       .
||---------------------------------------------------------------------|
||---------------------------------------------------------------------|
||---------------------------------------------------------------------|
||-------------5h8-----0-3-2-5-3---------------5h8-----0-3-2-5-3-------|
||-3h5---------------------------0-3h5---------------------------0-3h5-|
||-----000-000-----000-----------------000-000-----000-----------------|
       ... ...     ...                 ... ...     ...

Thanks! Please rate.