August Burns Red - Carol Of The Bells Chords & Tabs

 

August Burns Red Chords & Tabs

Version: 5 Type: Tab 0 ratings
1 star 2 stars 3 stars 4 stars 5 stars
comments

Carol Of The Bells Tab

   

||--(LEAD-1ST GUITAR)-------------------------------------||
||--------------------------------------------------------||
||--------------------------------------------------------||
||-----------------------------(harmony)------------------||
||--8---7-8-5-----------------12---10-12-8----------------||
||--------------------------------------------------------||


||--(RHYTHM-2ND GUITAR)------------------------------------||
||---------------------------------------------------------||
||---------------------------------------------------------||
||-----------------------------7----5----3----2------------||
||--5---3---1---0------------------------------------------||
||------------------(LET ALL RING) ------------------------||


||--(LEAD-1ST GUITAR)-------------------------------------||
||-----------------------------(HARMONY)------------------||
||---10-10-9-10-7-7----------14-14-12-14-10-10------------||
||--------------------------------------------------------||
||--------------------------------------------------------||
||--------------------------------------------------------||
    PM  .     .     .     .    .    .                         .      .      .      .      .      .


||---(RHYTHM-2ND GUITAR)---------------------------------||
||-------------------------------------------------------||
||-------------------------------------------------------||
||-------------------------------------------------------||
||---5-5-5-5-5-5-3-3-3-3-3-3-1-1-1-1-1-1-0-0-0-0-0-0-----||
||-------------------------------------------------------||
   PM  .   .    .   .   .    .   .    .   .   .    .   .   .   .    .   .    .

||----------------------------------------------------||
||----------------------------------------------------||
||----------------------------------------------------||
||-12-121212-12--10-8-7-7-7-7-5-3-5-5-5-5-7-8-0-0-0-0-||
||----------------------------------------------------||
||----------------------------------------------------||


||--(RHYTHM-2ND GUITAR)----------------------------------||
||-------------------------------------------------------||
||-------------------------------------------------------||
||---3----------5----------3-----------2-----------------||
||---5----------3----------1-----------0-----------------||
||-------------------------------------------------------||


||---(BOTH GUITARS--)------------------------------------||
||-------------------------------------------------------||
||---------------9--10--9--------------------------------||
||----7--11--12------------12----------------------------||
||-------------------------------------------------------||
||-------------------------------------------------------||
               (TREMOLO)
[ Tab from: http://www.guitartabs.cc/tabs/a/august_burns_red/carol_of_the_bells_tab_ver_5.html ]
|||--(LEAD-1ST GUITAR)------------------------------------||
||--------------------------------------------------------||
||--------------------------------------------------------||
||-----------------------------(HARMONY)------------------||
||--8---7-8-5-----------------12---10-12-8----------------||
||--------------------------------------------------------||


||--(RHYTHM-2ND GUITAR)------------------------------------||
||---------------------------------------------------------||
||---------------------------------------------------------||
||---------------------------------------------------------||
||--5----------------3---------------1----------0----------||
||------------------(LET ALL RING) ------------------------||


||---(LEAD-1ST GUITAR)------------------------------------||
||------------------------------(HARMONY)-----------------||
||----10--9-10-7---------------14--12-14-10---------------||
||--------------------------------------------------------||
||--------------------------------------------------------||
||--------------------------------------------------------||


||----(RHYTHM-2ND GUITAR)--------------------------------||
||-------------------------------------------------------||
||-------------------------------------------------------||
||-----7-----------5--------------3-------------2--------||
||-------------------------------------------------------||
||-------------------------------------------------------||


||-----------------------------------------------------------||
||-15-151515-15-13/11-10-101010-10-8/6-8-888-8-10-11---------||
||---------------------------------------------------12------||
||-----------------------------------------------------------||
||-------(BOTH GUITARS)--------------------------------------||
||-----------------------------------------------------------||


||---(BOTH GUITARS)---------------------------------------||
||--------------------------------------------------------||
||-----------9-10-9----------------------/19--------------||
||---7-11-12--------12-11-12-14-15-17-15------------------||
||--------------------------------------------------------||
||--------------------------------------------------------||


||------|-------------------------|---------------------------||
||------|--(THIS PART IS REPEATED)----|-----------------------||
||------|-------------------------|---------------------------||
||------|-------------------------|---------------------------||
||---0--|-------------------------|---------------------------||
||---0--|--000----00000----00000--|---------------------------||


||----(OVERTOP OF BREAKDOWN)-----------------------------||
||-------------------------------------------------------||
||-------------------------------------------------------||
||-------------------------------------------------------||
||----8--7--8--5----------12--10--12--8------------------||
||-------------------------------------------------------||
                        (TREMOLO)


THIS IS EVERY PART OF THE SONG.. THE LAST BIT IS MISSING BECAUSE ALL THE PARTS
ARE ALREADY TABBED OUT, JUST FIGURE OUT WHERE TO USE WHAT I HAVE TABBED.  RATE
IT.. THANKS

LEE C
Comments