August Burns Red - Carol Of The Bells Chords & Tabs

 

August Burns Red Chords & Tabs

Version: 3 Type: Tab 0 ratings
1 star 2 stars 3 stars 4 stars 5 stars
comments

Carol Of The Bells Tab

August Burns Red
Carol of the Bells
tunning-(CGCFAD)


gtr1 x4
||------------------------||
||o----------------------o||
||------------------------||
||------------------------||
||o--8--7-8-5--8--7-8-5--o||
||------------------------||
|
|
gtr2
||---------------------------||
||---------------------------||
||--7~-----5~-----3~-----2~--||
||--7~-----5~-----3~-----2~--||
||--5~-----3~-----1~-----0~--||
||---------------------------||

gtr1
||------------------------||
||o----------------------o||
||------------------------||
||------------------------||
||o--8--7-8-5--8--7-8-5--o||
||------------------------||
|
|
gtr2
||---------------------------||
||---------------------------||
||--7~-----5~-----3~-----2~--||
||--7~-----5~-----3~-----2~--||
||--5~-----3~-----1~-----0~--||
||---------------------------||
|
|
gtr3
||----------------------||
||o--------------------o||
||----------------------||
||--7--5-7-3--7--5-7-3--||
||o--------------------o||
||----------------------||
[ Tab from: http://www.guitartabs.cc/tabs/a/august_burns_red/carol_of_the_bells_tab_ver_3.html ]
gtr1 x8
||------------------||
||o----------------o||
||--10-10-9-10-7-7--||
||------------------||
||o----------------o||
||------------------||
|   .. .. . .. . .
|
gtr2
||-------------------------------------------------------||
||-------------------------------------------------------||
||-------------------------------------------------------||
||-------------------------------------------------------||
||--555555555555-333333333333-111111111111-000000000000--||
||-------------------------------------------------------||
    ............ ............ ............ ............

gtr1 x7 (last x3 no palm mutes)
||------------------||
||o----------------o||
||--10-10-9-10-7-7--||
||------------------||
||o----------------o||
||------------------||
|   .. .. . .. . .
|
gtr2
||-------------------------------------------------||
||-------------------------------------------------||
||-------------------------------------------------||
||-------------------------------------------------||
||--555555555555-333333333333-111111111111-000000--||
||-------------------------------------------------||
|   ............ ............ ............ ......
|
|gtr3 x7 (last x3 no palm mutes)
||------------------||
||o-10-10-8-10-6-6-o||
||------------------||
||------------------||
||o----------------o||
||------------------||
    .. .. . .. . .


this is all i got for now
i really like their version so i hope this helps in finding out the rest of the song
any questions/comments email is david_sg_metal@yahoo.com
Comments