August Burns Red - Blinding Light Chords & Tabs

 

August Burns Red Chords & Tabs

Version: 2 Type: Tab 0 ratings
1 star 2 stars 3 stars 4 stars 5 stars
comments

Blinding Light Tab

   
[The Blinding Light]
[Messengers]
[August Burns Red]

Watch the times, some things overlap.
See how many times each riff is played (No indication means 1)
Watch if each part has one guitar or two matching.
Symbols at bottum.

[Riff 1] - [00:16] - [00:30]---------------------------------------------| 3x
- -----------------------------------------------------------------------|
- -----------------------------------------------------------------------|
- ------------------------------------------9-----------------------6----|
- -------------------------11p0-8p0-----------7-8p7p0--------------------|
- ---------555-----8p0-7/8------------------------------------5p4p0------|
- -000-000-----000------------------000-000-----------000-000------------|
PM ...............                  .......           .......

[Riff 2, Gtr 1 & 2] - [00:30] - [00:34]
- ----------------------------------------------------------------------|
- ------------------------------------------------------------------5---|
- ------------------------------------------9---------------------------|
- -------------------------11p0-8p0-----------7-8p7p0-------------------|
- ---------555-----8p0-7/8------------------------------------5p4p0-----|
- -000-000-----000------------------000-000-----------000-000-----------|
PM ...............                  .......           .......
-
- ----------------------------------------------------------------------|
- ----------------------------------------------------------------------|
- ------------------------------------------9-----------------------6---|
- -------------------------11p0-8p0-----------7-8p7p0-------------------|
- ---------555-----8p0-7/8------------------------------------5p4p0-----|
- -000-000-----000------------------000-000-----------000-000-----------|
PM ...............                  .......           .......

----------------------------------------------------------------------------

[Riff 3] - [00:34] - [00:45]
- -------------------------------------|
- -----5---------5-------5---------5---|
- -6---------6-------6---------6-------|
- ---7---------7-------7---------7-----|
- -------------------------------------|
- -------0-0-------0-------0-0-------0-|
PM       ...       .       ...       .

- -------------------------------------|
- -----6---------6-------6---------6---|
- -7---------7-------7---------7-------|
- ---7---------7-------7---------7-----|
- -------------------------------------|
- -------0-0-------0-------0-0-------0-|
PM       ...       .       ...       .

- -------------------------------------|
- -----8---------8-------8---------8---|
- -9---------9-------9---------9-------|
- ---11--------11------11--------11----|
- -------------------------------------|
- -------0-0-------0-------0-0-------0-|
PM       ...       .       ...       .

- -------------------------------------|
- -----6---------6-------6---------6---|
- -7---------7-------7---------7-------|
- ---7---------7-------7---------7-----|
- -------------------------------------|
- -------0-0-------0-------0-0-------0-|
PM       ...       .       ...       .

[Riff 4, Gtr 1 & 2] - [00:45] - [00:57]
- -------------------------------------| 1
- -----8---------8-------8---------8---|
- -9---------9-------9---------9-------|
- ---11--------11------11--------11----|
- -------------------------------------|
- -------0-0-------0-------0-0-------0-|
PM       ...       .       ...       .
-
- -------------------------------------|
- -----5---------5-------5---------5---|
- -6---------6-------6---------6-------|
- ---7---------7-------7---------7-----|
- -------------------------------------|
- -------0-0-------0-------0-0-------0-|
PM       ...       .       ...       .


- -------------------------------------| 2
- -----10--------10------10--------10--|
- -10--------10------10--------10------|
- ---12--------12------12--------12----|
- -------------------------------------|
- -------0-0-------0-------0-0-------0-|
PM       ...       .       ...       .
-
- -------------------------------------|
- -----6---------6-------6---------6---|
- -7---------7-------7---------7-------|
- ---7---------7-------7---------7-----|
- -------------------------------------|
- -------0-0-------0-------0-0-------0-|
PM       ...       .       ...       .


- -------------------------------------| 3
- -----11--------11------11--------11--|
- -12--------12------12--------12------|
- ---14--------14------14--------14----|
- -------------------------------------|
- -------0-0-------0-------0-0-------0-|
PM       ...       .       ...       .
-
- -------------------------------------|
- -----8---------8-------8---------8---|
- -9---------9-------9---------9-------|
- ---11--------11------11--------11----|
- -------------------------------------|
- -------0-0-------0-------0-0-------0-|
PM       ...       .       ...       .


- -------------------------------------| 4
- -----15--------15------15--------15--|
- -14--------14------14--------14------|
- ---15--------15------15--------15----|
- -------------------------------------|
- -------0-0-------0-------0-0---------|
PM       ...       .       ...
-
- -------------------------------------|
- -----10--------10------10--------10--|
- -10--------10------10--------10------|
- ---12--------12------12--------12----|
- -------------------------------------|
- -------0-0-------0-------0-0---------|
PM       ...       .       ...

----------------------------------------------------------------------------

[Riff 5] - [00:57] - [01:10]------------| 8x
- --------------------------------------|
- --------------------------------------|
- --------------------------------------|
- --------------------------------------|
- -000-000-0---000-0-00-00-0-00000-0----|
- -000-000-0---000-0-00-00-0-00000-0----|
PM .................................

[Riff 6, Gtr 1 & 2] - [01:22]
- -------------------------------------|
- -----5---------5-------5---------5---|
- -6---------6-------6---------6-------|
- ---7---------7-------7---------7-----|
- -------------------------------------|
- -------------------------------------|
-
- -------------------------------------|
- -------------------------------------|
- -------------------------------------|
- -----2---------2-------2---------2---|
- -4-0-------4-0-----4-0-------4-0-----|
- -------------------------------------|

- -------------------------------------|
- -----6---------6-------6---------6---|
- -7---------7-------7---------7-------|
- ---7---------7-------7---------7-----|
- -------------------------------------|
- -------0-0-------0-------0-0-------0-|
-
- -------------------------------------|
- -------------------------------------|
- -------------------------------------|
- -----3---------3-------3---------3---|
- -5-0-------5-0-----5-0-------5-0-----|
- -------------------------------------|

- -------------------------------------|
- -----8---------8-------8---------8---|
- -9---------9-------9---------9-------|
- ---11--------11------11--------11----|
- -------------------------------------|
- -------0-0-------0-------0-0-------0-|
-
- -------------------------------------|
- -------------------------------------|
- -------------------------------------|
- -----5---------5-------5---------5---|
- -7-4-------7-4-----7-4-------7-4-----|
- -------------------------------------|

- -------------------------------------|
- -----10--------10------10--------10--|
- -10--------10------10--------10------|
- ---12--------12------12--------12----|
- -------------------------------------|
- -------0-0-------0-------0-0---------|
-
- -------------------------------------|
- -------------------------------------|
- -------------------------------------|
- -----7---------7-------7---------7---|
- -8-5-------8-5-----8-5-------8-5-----|
- -------------------------------------|

----------------------------------------------------------------------------

[Riff 7, Gtr 1 & 2] - [01:22] - [01:37]
- ----13-------12/13----------13-------12/13-------|
- -------15----------15----------15----------15\---|
- -14-------14----------14-14-------14-------------|
- -------------------------------------------------|
- -------------------------------------------------|
- -------------------------------------------------|
-
- -------------------------------------------------|
- -------------------------------------------------|
- -------------------------------------------------|
- -------------------------------------------------|
- -------------------------------------------------|
- -------------------------------------------------|

- -------------------------------------------------|
- -10-10-10-10-10-10-10-10-12-12-12-12-12-12-12-13-|
- -9--9--9--9--9--9--9--9--9--9--9--9--9--9--9--9--|
- -------------------------------------------------|
- -------------------------------------------------|
- -------------------------------------------------|
-
- -------------------------------------------------|
- -------------------------------------------------|
- -------------------------------------------------|
- -3-----------------------3-----------5-----------|
- -3-----------------------3-----------5-----------|
- -3-----------------------3-----------5-----------|

- ----13-------12/13----------13-------12/13-------|
- -------15----------15----------15----------15\---|
- -14-------14----------14-14-------14-------------|
- -------------------------------------------------|
- -------------------------------------------------|
- -------------------------------------------------|
-
- -------------------------------------------------|
- -------------------------------------------------|
- -------------------------------------------------|
- -0-----------------------------------------------|
- -0-----------------------------------------------|
- -0-----------------------------------------------|

- -------------------------------------------------|
- -------10-10-10-10-10-10-12-12-12-12-13-13-13----|
- -9--9--9--9--9--9--9--9--9--9--9--9--9--9--9-----|
- -------------------------------------------------|
- -------------------------------------------------|
- -------------------------------------------------|
-
- -------------------------------------------------|
- -------------------------------------------------|
- -------------------------------------------------|
- -2-----------------------2-----------------------|
- -0-----------------------0-----------------------|
- -------------------------------------------------|

[Riff 8a] - [01:37] - [01:49]
- ----13-------12/13----------13-------12/13-------|
- -------15----------15----------15----------15\---|
- -14-------14----------14-14-------14-------------|
- -------------------------------------------------|
- -------------------------------------------------|
- -------------------------------------------------|

- -------------------------------------------------|
- -------10-10-10-10-10-10-12-12-12-12-13-13-13----|
- -9--9--9--9--9--9--9--9--9--9--9--9--9--9--9-----|
- -------------------------------------------------|
- -------------------------------------------------|
- -------------------------------------------------|

- ----13-------12/13----------13-------12/13-------|
- -------15----------15----------15----------15\---|
- -14-------14----------14-14-------14-------------|
- -------------------------------------------------|
- -------------------------------------------------|
- -------------------------------------------------|

- -------------------------------------------------|
- -10-10-10-10-10-10-10-10-12-12-12-12-12-12-12-13-|
- -9--9--9--9--9--9--9--9--9--9--9--9--9--9--9--9--|
- -------------------------------------------------|
- -------------------------------------------------|
- -------------------------------------------------|

[Riff 8b] - [01:37] - [01:49]
- ----------------------------------|
- ----------------------------------|
- ----------------------------------|
- ----------------------------------|
- -00----0000000-----0-----0--0--00-|
- -00----0000000-----0-----0--0--00-|
PM ................................

- ----------------------------------|
- ----------------------------------|
- ----------------------------------|
- ----------------------------------|
- -00----0000000-----0-----0--0--00-|
- -00----0000000-----0-----0--0--00-|
PM ................................

- ----------------------------------|
- ----------------------------------|
- ----------------------------------|
- ----------------------------------|
- -00----0000000-----0-----0--0--0--|
- -00----0000000-----0-----0--0--0--|
PM ................................

- ----------------------------------|
- ----------------------------------|
- ----------------------------------|
- ----------------------------------|
- -33----3333333-----5-----5--5--00-|
- -33----3333333-----5-----5--5--00-|
PM ................................

----------------------------------------------------------------------------
[ Tab from: http://www.guitartabs.cc/tabs/a/august_burns_red/blinding_light_tab_ver_2.html ]
[Riff 9, Gtr 1 & 2] - [01:49] - [02:18]------------------------------| 4x
- ----10------10------10---10101010----------------------------------|
- ----10------10------10---10101010----------------------------------|
- ----10------10------10---10101010----------------------------------|
- ---------------------------------8-8-8-8-8-8-8-8-3-3-3-3-7-7-7-7---|
- -0-----000-----000-----0---------8-8-8-8-8-8-8-8-3-3-3-3-7-7-7-7---|
- -0-----000-----000-----0---------8-8-8-8-8-8-8-8-3-3-3-3-7-7-7-7---|
PM .     ...     ...     .
-
- ---------------------------------8-8-8-8-8-8-8-8-8---8---8---8----|
- -5-5-5-5-5-5-5-5-6-6-6-6-8-8-8-8-1010101010101010--10--10--10--10-|
- -9-9-9-9-9-9-9-9-9-9-9-9-9-9-9-9-1010101010101010-----------------|
- ------------------------------------------------------------------|
- ------------------------------------------------------------------|
- ------------------------------------------------------------------|

----------------------------------------------------------------------------

[Riff 10] - [02:18] - [02:37]--------------------------------------------| 4x
- -----------------------------------------------------------------------|
- -------------------------10/11-11--------------------------------------|
- ---------10--------------x--x--x---------------------------------------|
- ---------x---------------7/-8/-8--------------------------11-11-11-11--|
- -555-555-8---555-555-555----------888-888-8-8-888-777-777-7--7--7--7---|
- -000-000-----000-000-000----------888-888-8-8-888-777-777-7--7--7--7---|
PM .......     ...........          .......................

[Riff 11] - [02:27] - [02:37]-----------------| 2x
- --------------------------------------------|
- --------------------------------------------|
- -------10p9p7p0-----------10p9p7p0----------|
- -3p0------------8p0-3p0------------8p0-3p0--|
- -----7------------------7-------------------|
- --------------------------------------------|

- ---------------------------------|
- ---------------------------------|
- ---------9---------------6-------|
- -8p0-7h8---8p7h8-7p0-5h7---7p5h7-|
- ---------------------------------|
- ---------------------------------|

----------------------------------------------------------------------------

[Riff 3] - [02:37] - [00:47]
[Riff 4, Gtr 1 & 2] - [00:47] - [02:58]

----------------------------------------------------------------------------

[Riff 12, Gtr 1 & 2] - [02:58] - [03:12]
- -------------------------------------------------|
- -------------------------------------------------|
- -------------------------------------------------|
- -------------------------------------------------|
- -5~----------------------------------------------|
- -------------------------------------------------|
-
- -------------------------------------------------|
- -------------------------------------------------|
- -------------------------------------------------|
- -------------------------------------------------|
- -5---5-----5---5---5-----5---5-----5---5---5-----|
- ---------0-------------0---------0-------------0-|
PM         .             .         .             .

- -------------------------------------------------|
- -------------------------------------------------|
- -------------------------------------------------|
- -------------------------------------------------|
- -1~----------------------0~----------------------|
- -------------------------------------------------|
-
- -------------------------------------------------|
- -------------------------------------------------|
- -------------------------------------------------|
- -------------------------------------------------|
- -1---1-----1---1---1-----0---0-----0---0---0-----|
- ---------0-------------0---------0-------------0-|
PM         .             .         .             .

- -------------------------------------------------|
- -------------------------------------------------|
- -------------------------------------------------|
- -------------------------------------------------|
- -5~----------------------------------------------|
- -------------------------------------------------|
-
- -------------------------------------------------|
- -------------------------------------------------|
- -------------------------------------------------|
- -------------------------------------------------|
- -5---5-----5---5---5-----5---5-----5---5---5-----|
- ---------0-------------0---------0-------------0-|
PM         .             .         .             .

- -------------------------------------------------|
- -------------------------------------------------|
- -------------------------------------------------|
- -------------------------///---------------------|
- -1~----------------------///---------------------|
- -------------------------///---------------------|
-
- -------------------------------------------------|
- -------------------------------------------------|
- -------------------------------------------------|
- -------------------------------------------------|
- -1---1-----1---1---1-----0---0-----0---0---0-----|
- ---------0-------------0---------0-------------0-|
PM         .             .         .             .

[Riff 13, Gtr 1 & 2] - [03:12] - [03:26]
- -------------------------------------------------|
- -------------------------------------------------|
- -------------------------------------------------|
- -7---7-----7---7---7-----7---7-----7---7---7-----|
- -------------------------------------------------|
- ---------0-------------0---------0-------------0-|
PM         .             .         .             .
-
- -------------------------------------------------|
- -------------------------------------------------|
- -------------------------------------------------|
- -------------------------------------------------|
- -5---5-----5---5---5-----5---5-----5---5---5-----|
- ---------0-------------0---------0-------------0-|
PM         .             .         .             .

- -------------------------------------------------|
- -------------------------------------------------|
- -------------------------6---6-----6---6---6-----|
- -8---8-----8---8---8-----------------------------|
- -------------------------------------------------|
- ---------0-------------0---------0-------------0-|
PM         .             .         .             .
-
- -------------------------------------------------|
- -------------------------------------------------|
- -------------------------------------------------|
- -------------------------------------------------|
- -5---5-----5---5---5-----5---5-----5---5---5-----|
- ---------0-------------0---------0-------------0-|
PM         .             .         .             .

- -------------------------------------------------|
- -------------------------------------------------|
- -7---7-----7---7---7-----7---7-----7---7---7-----|
- -------------------------------------------------|
- -------------------------------------------------|
- ---------0-------------0---------0-------------0-|
PM         .             .         .             .
-
- -------------------------------------------------|
- -------------------------------------------------|
- -------------------------------------------------|
- -------------------------------------------------|
- -5---5-----5---5---5-----5---5-----5---5---5-----|
- ---------0-------------0---------0-------------0-|
PM         .             .         .             .

- -------------------------------------------------|
- -------------------------------------------------|
- -------------------------10--10----10--10--10----|
- -10--10----10--10--10----------------------------|
- -------------------------------------------------|
- ---------0-------------0---------0-------------0-|
PM         .             .         .             .
-
- -------------------------------------------------|
- -------------------------------------------------|
- -------------------------------------------------|
- -------------------------------------------------|
- -5---5-----5---5---5-----5---5-----5---5---5-----|
- ---------0-------------0---------0-------------0-|
PM         .             .         .             .

----------------------------------------------------------------------------

[Riff 14] - [03:26] - [03:28]
- -----------------------|
- -----------------------|
- -----------------------|
- -----------------------|
- -5---5b----5---5---5b--|
- ---------0-------------|
PM         .

----------------------------------------------------------------------------

[Riff 15] - [03:28] - [03:36]
- -------------------------------------------------|
- -------------------------------------------------|
- -------------------------------------------------|
- -------------------------------------------------|
- -0---0-----0---0---0-----0---0-----0---0---0---0-|
- -0---0-----0---0---0-----0---0-----0---0---0---0-|
PM ...............................................

- -------------------------------------------------|
- -------------------------------------------------|
- -------------------------------------------------|
- -------------------------------------------------|
- -0---0-----0---0---0-----0---0-----0---0---[7b]--|
- -0---0-----0---0---0-----0---0-----0---0---------|
PM .......................................

[Riff 16] - [03:36] - [03:54]-----------------------| 5x
- --------------------------------------------------|
- --------------------------------------------------|
- --------------------------------------------------|
- --------------------------------------------------|
- -0---0-----0---0---0-----0---0-----0---0---0---0--|
- -0---0-----0---0---0-----0---0-----0---0---0---0--|
PM ...............................................

[Riff 18] - [03:42] - [03:54]
- -------------------------------------------------|
- -------------------------------------------------|
- -2---2-----2---2---2-----2---2-----2---2---2-----|
- -x---x-----x---x---x-----x---x-----x---x---x-----|
- -0---0-----0---0---0-----0---0-----0---0---0-----|
- ---------0-------------0---------0-------------0-|
PM         .             .         .             .

- -------------------------------------------------|
- -------------------------------------------------|
- -3---3-----3---3---3-----6---6-----6---6---6-----|
- -x---x-----x---x---x-----x---x-----x---x---x-----|
- -1---1-----1---1---1-----4---4-----4---4---4-----|
- ---------0-------------0---------0-------------0-|
PM         .             .         .             .

- -------------------------------------------------|
- -------------------------------------------------|
- -7---7-----7---7---7-----7---7-----7---7---7-----|
- -x---x-----x---x---x-----x---x-----x---x---x-----|
- -5---5-----5---5---5-----5---5-----5---5---5-----|
- ---------0-------------0---------0-------------0-|
PM         .             .         .             .

- -------------------------|
- -------------------------|
- -10--10----10--10--10----|
- -x---x-----x---x---x-----|
- -8---8-----8---8---8-----|
- ---------0-------------0-|
PM         .             .

[Riff 17] - [03:54] - [03:56]
- -----------------------------|
- -----------------------------|
- -----------------------------|
- -----------------0-----------|
- -0---0-----0-0---0-----------|
- -0---0-----0-0---0-----------|
PM .............


----------------------------------------------------------------------------

[Riff 1] - [03:56] - [04:05]-----| 2x
[Riff 10] - [04:05] - [04:15]----| 2x

----------------------------------------------------------------------------

[Riff 19] - [04:15] - [04:20]
- -------------------------------------------------------------------|
- -------------------------------------------------------------------|
- -7-------7---7h9p7-7-------7---7-----------------------------------|
- -----------------------------------8-------8---8---7-------7---7---|
- -------------------------------------------------------------------|
- ---0-0-0---0---------0-0-0---0---0---8-8-8---8---8---7-7-7---7---7-|
PM  ......   .         .....   .   .   .....   .   .   .....   .   .

[Riff 20, Gtr 1 & 2] - [04:20] - [04:33]----------------------------------| 3x
- ------------------------------------------------------------------------|
- -6-------6---6h10p6h10-6-------6---6------------------------------------|
- ---------------------------------------7-------7---7---6-------6---6----|
- ------------------------------------------------------------------------|
- ------------------------------------------------------------------------|
- ---0-0-0---0-------------0-0-0---0---0---8-8-8---8---8---7-7-7---7---7--|
PM  ......   .             .....   .   .   .....   .   .   .....   .   .
-
- -----------------------------------------------------------------------|
- -----------------------------------------------------------------------|
- -7-------7---7h9p7-----7-------7---7-----------------------------------|
- ---------------------------------------8-------8---8---7-------7---7---|
- -----------------------------------------------------------------------|
- ---0-0-0---0-------------0-0-0---0---0---8-8-8---8---8---7-7-7---7---7-|
PM  ......   .             .....   .   .   .....   .   .   .....   .   .

----------------------------------------------------------------------------

[Riff 15] - [04:33] - [04:40]
[Riff 16] - [04:40] - [05:15]

[Riff 21] - [04:46] - [05:01]-----------------------| 2x
- --------------------------------------------------|
- --------------------------------------------------|
- --------------------------------------------------|
- --------------------------------------------------|
- -5---5-----5---5---5-----5---5-----5---5---5------|
- ---------0-------------0---------0-------------0--|
PM         .             .         .             .
-
- -------------------------------------------------|
- -------------------------------------------------|
- -------------------------------------------------|
- -------------------------------------------------|
- -1---1-----1---1---1-----0---0-----0---0---0-----|
- ---------0-------------0---------0-------------0-|
PM         .             .         .             .

[Riff 13, Gtr 1 & 2] - [05:01] - [05:15] - 2x

[Riff 22] - [05:15] - [05:28]
- --------------------------------------|
- --------------------------------------|
- --------------------------------------|
- -------------------0------------------|
- -0---0-----0----0--0------------------|
- -0---0-----0----0--0------------------|
PM ................

[Symbols]
PM... Palm Mute notes with (...) under them
/     Slide Up
p     Pull Off
\     Slide Down
h     Hammer On
\-    Slide Out Downwards
///   Pick Slide
[ ]   Pinch Harmonic
b     Bend
Comments