August Burns Red - Barbarian Chords & Tabs

 

August Burns Red Chords & Tabs

Version: 1 Type: Tab 0 ratings
1 star 2 stars 3 stars 4 stars 5 stars
comments

Barbarian Tab

Band: August Burns Red
Album: Thrill Seeker
Song: Barbarian

Tuning: Drop C-

Tabbed by: Andrew Brierly- Chramer
Email: andrew_ebc@hotmail.com

  Intro, Guitar I (00.00)
||----------------------------------------------------------------|
||----------------------------------------------------------------|
||----------------------------------------------------------------|
||----------------------------------------------------------------|
||-555555555----5555555----5555555----55555--------55555555-------|
||-555555555----5555555----5555555----55555--------55555555-------|
   .........    .......    .......    .....        ........

 Intro, Guitar II (00.11)
||----------------------------------------------------------------|
||----------------------------------------------------------------|
||-----------------5555--7777----888877775555----77775555---------|
||-5555777788885555----88----5555------------5555--------88885555-|
||----------------------------------------------------------------|
||----------------------------------------------------------------|

  (00.21)
||----------------------------------------------------------------|
||----------------------------------------------------------------|
||---------5---7---8-7-5---7-5------------------------------------|
||-5-7-8-5---8---5-------5-----8-5--------------------------------|
||----------------------------------------------------------------|
||----------------------------------------------------------------|

  Vers I (00.32)
||----------------------------------------------------------------|
||----------------------------------------------------------------|
||----------------------------------------------------------------|
||-5---7---8---7---4---5---7---5---1---3---5---1---3---5---7---3--|
||----------------------------------------------------------------|
||---5---5---5---5---0---0---0---0---1---1---1---1---3---3---3----|
     .   .   .   .   .   .   .   .   .   .   .   .   .   .   .

  Vers II (00.53)
||----------------------------------------------------------------|
||----------------------------------------------------------------|
||-----------------------------------------------------7-5--------|
||----------------------------------------5h8p5----3/5-----7------|
||-5--4-5--4-5--0-1/3--5--4-5--4-5--0-1/3-------8-----------------|
||-5--4-5--4-5--0-1/3--5--4-5--4-5--0-1/3-------------------------|


  Solo I, Guitar I (01.10)
||----------------------------------------------------------------|
||----------------------------------------------------------------|
||-3-3-3------5-5-5------7-7-7------7-7-7-------------------------|
||-x-x-x------x-x-x------x-x-x------x-x-x-------------------------|
||-1-1-1------3-3-3------5-5-5------5-5-5-------------------------|
||----------------------------------------------------------------|

  Solo I, Guitar II (01.16)
||--------------------------------------------11-10---------------------|
||----------------------------11-10-8----10-8-------8-10-11-8--------10-|
||--------------7-8-10--8--12---------10----------------------10-8-7----|
||-5h7-7h8-8-10---------------------------------------------------------|
||----------------------------------------------------------------------|
||----------------------------------------------------------------------|

||--------------------------------------------11-10-----------10-8-10-11-|
||----------------------------11-10-8----10-8-------8-11-10-8------------|
||--------------7-8-10--8--12---------10---------------------------------|
||-5h7-7h8-8-10----------------------------------------------------------|
||-----------------------------------------------------------------------|
||-----------------------------------------------------------------------|
[ Tab from: http://www.guitartabs.cc/tabs/a/august_burns_red/barbarian_tab.html ]
  Vers III (01.28)
||------------------------------------------------------------|
||------------------------------------------------------------|
||------------------------------------------------------------|
||------------------------------------------------------------|
||-55555--55-55--4h5-00-1h5-00--55555--55-55--4h5-0-0-0-5-1-8-|
||-55555--55-55--4h5-00-1h5-00--55555--55-55--4h5-0-0-0-5-1-8-|
   .....  .. ..      ..     ..  .....  .. ..      . . . . . .

 (01.52)
||----------------10-|
||-----------8-10----|
||---------7---------|
||-5-3-7-8-----------|
||-------------------|
||-------------------|

  Vers IIII (01.53)
||--------------------------------------------------------|
||--------------------------------------------------------|
||--------------------------------------------------------|
||-----8---7-8--------10-8---7-8--------12---13p12p10-----|
||---------------10--------------10-------------------10--|
||-0-0---0-----0----0------0--------0-0----0--------------|
   . .   .     .    .      .        . .    .
||-----------------------------------------------------------------------------------------------------|
||-13p11p10-----------------------------------------------------------------------------------------|
||----------12-7-10-7-12-10--------------------------------------------------------------------------------|
||-----------------------------8-------8---8---8-------------------------------------------------------|
||-------------------------------------------------6666-8888-10101010-6666-8888-10101010-12121212-8888-|
||-------------------------0-0---0-000---0---0---0-----------------------------------------------------|
                           . .   . ...   .   .   .
  Solo II, Guitar I (02.12)
||-------------------------------------------------------------13----|
||-13p11p10-------------------------------------------16-15-13----13-|
||----------12--7-10----------------------------12-14----------------|
||-------------------12------------------121415----------------------|
||----------------------13-12-13--101213-----------------------------|
||-------------------------------------------------------------------|

||----------------------------------------------------------------------17p15p14-17p15p14-|
||-----------------------------------------------------13--11-10-----18-------------------|
||---------------------12-15---------------------12-15-----------12-----------------------|
||---------------12-15---------------------12-15------------------------------------------|
||-13p12p10-8-10-------------13p12p10-8-10------------------------------------------------|
||----------------------------------------------------------------------------------------|

  Solo II, Guitar II (02.12)
||---------------------------------------------------------|
||---------------------------------------------------------|
||---------------------------------------------------------|
||---------------------------------------------------------|
||-8----8----8--8----8----8----5----5----5--5----5----5----|
||-8----8----8--8----8----8----5----5----5--5----5----5----|

||---------------------------------------------------------|
||---------------------------------------------------------|
||---------------------------------------------------------|
||---------------------------------------------------------|
||-1----1----1--1----1----1----3----3----3--3----3----3----|
||-1----1----1--1----1----1----3----3----3--3----3----3----|

  Repeat Vers I (02.34)

  Breakdown (02.57)
||-----------------------------------------------------------|
||-----------------------------------------------------------|
||-----------------------------------------------------------|
||-----------------------------------------------------------|
||-000000000----0000000----0000000----00000--------000000000-|
||-000000000----0000000----0000000----00000--------000000000-|
   .........    .......    .......    .....        .........

  Repeat Intro, Guitar II (03.10)

  (03.31)
||------------------|
||------------------|
||------------------|
||------------------|
||-5----------------|
||-5----------------|

Thanks, please rate & comment this tab.
Comments