August Burns Red - Balance Chords & Tabs

 

August Burns Red Chords & Tabs

Version: 1 Type: Tab 0 ratings
1 star 2 stars 3 stars 4 stars 5 stars
comments

Balance Tab

   
----------------------------------------------------------------------------
                            August Burns Red
                              The Balance                   Drop C
----------------------------------------------------------------------------

Intro -0:22

Gtr1 [listen to the song to know where to come in]**
|---------------------------------------------------------------------------|
|---------------------------------------------------------------------------|
|---------------------------------------------------------------------------|
|---------------------------------------------------------------------------|
|-12-----------------------------------------8------------------------------|
|-12-----------------------------------------8------------------------------|

Gtr2
|------5-------5---|-----------------|-------------------|
|----6---6---6---6-|-----------------|-------------------|
|--7-------7-------|-----------------|----------7---10h9-|
|------------------|-8h7-----0h8h7---|---8h7h10---8------|
|------------------|-----7h8-------8-|-------------------|
|------------------|-----------------|-8-----------------|

---------------------|
---------------------|
-----------7---10/14-|
----8h7h10---8-------|   X4
---------------------|
--8------------------|


0:22-0:44
|----------------------|-----------------|---------------------|
|----------------------|-----------------|---------------------|
|----------------------|-----------------|---------------------|
|----------------------|-----------------|---------------------|
|-8-0-5/7--0-0-0-0-0-0-|-8-0-5/7-0-3-0-0-|-8-0-5/7-0-0-0-0-0-0-|
|-8-0-5/7--0-0-0-0-0-0-|-8-0-5/7-0-3-0-0-|-8-0-5/7-0-0-0-0-0-0-|

------------------------|
------------------------|
-10----9/4-2----7-------|
------------------------|    X2
-8--0--7/4-0--0-5--0--0-|
----0---------0----0--0-|


|----------------------|------------------|----------------------|
|----------------------|------------------|----------------------|
|----------------------|------------------|----------------------|
|----------------------|------------------|----------------------|
|-10-0-7/8-0-0-0-0-0-0-|-10-0-7/8-0-5-0-0-|-10-0-7/8-0-0-0-0-0-0-|
|-10-0-7/8-0-0-0-0-0-0-|-10-0-7/8-0-5-0-0-|-10-0-7/8-0-0-0-0-0-0-|

------------------------|
------------------------|
-10----9/4-2-----7------|
------------------------|    X2
-8--0--7/4-0--0--5--0-0-|
----0---------0-----0-0-|


0:46-0:57
|-----------------------|-----------------------|-------------------------|
|-----------------------|-----------------------|-------------------------|
|-----------------------|-----------------------|-------------------------|
|-----------7h0---------|-8-----------------7h0-|-------------7h0---------|
|-0-0-0-8h7-----0--10h8-|---7-0-10h8h12h8h7-----|-0-0-0-0-8h7-----0-10h8--|
|-0-0-0---------0-------|-----0-----------------|-0-0-0-0---------0-------|

|-----------------------|
|-----------------------|
|-----------------------|
|-8-----------------7h0-|
|---7-0-10h8h12h8h7-----|
|-----0-----------------|

|---------------------|----------------------|----------------------|
|---------------------|----------------------|----------------------|
|---------------------|----------------------|----------------------|
|---------------------|------------------7h0-|----------------------|
|-0-0-0-0---0-0-0-0-0-|-0-0-0-0-0-10h8h7-----|-0-0-0-0---0-0-0-0-0--|
|-0-0-0-0---0-0-0-0-0-|-0-0-0-0-0------------|-0-0-0-0---0-0-0-0-0--|

-------------------|
-------------------|
-------------------|
-------------------|
-0-0-0-0-0-8h7h5h7-|
-0-0-0-0-0---------|

THEN THE BREAKDOWN, LISTEN TO THE SONG TO GET RYTHEM AND TIMING RIGHT...
BREAKDOWN:
0:58-1:10

FILL:
|-----------------------|
|-----------------------|
|-----------------------|
|-12------------------7-|
|-12------------------7-|
|-12------------------7-|


1:13-1:32
|-----------------------|-------------------|------------------------|
|-----------------------|----------10h6-----|------------------------|
|------------------10h7-|---------------7---|------------------------|
|----------------8------|---10h8----------8-|-------7h0--------------|
|-0-0-0-0-0-0-0---------|-0------0----------|-0-0-0--------0-0-0-0-0-|
|-0-0-0-0-0-0-0---------|-0------0----------|-0-0-0-----8--0-0-0-0-0-|
                                       4TH TIME END ON THIS
|-------------------|                 |--------------------|
|-------------------|                 |--------------------|
|-------10----------|                 |-------10-----------|
|---7h0-------------| X4              |---7h0--------------|
|-0---------0-0h7h8-|                 |-0--------10----8---|
|-0---------0-------|                 |-0--------10----8---|

1:33-1:41
|-----------------|----------------|-----------------|-------------------|
|-----------------|----------------|-----------------|-------------------|
|-----------------|----------------|-----------------|-------------------|
|---10---8--------|----------------|---10---8--------|-14---14---15h12---|
|------------12---|-8---8---10h8-8-|------------12---|-------------------|
|-8----8---8----8-|---8---8------8-|-8----8---8----8-|----0----0-------0-|

[ Tab from: http://www.guitartabs.cc/tabs/a/august_burns_red/balance_tab.html ]
|---------------|----------------|---------------|--------------|
|---------------|----------------|---------------|--------------|
|---------------|----------------|---------------|--------------|
|-------7h0-----|---------7------|-------7h0-----|---------7----|
|---7h0-------7h|h0---7h0--------|---7h0-------7h|h0---7h0----8-|
|-0---------0---|---0--------0-0-|-0---------0---|---0--------8-|

1:42-1:51
|-----------------|-----------------|----------------|-------------------|
|-----------------|-----------------|----------------|-------------------|
|-----------------|-----------------|----------------|-------------------|
|---10---8--------|-----------------|--10---8--------|-14---14---15/19---|
|------------12---|-8---8---10h8--8-|-----------12---|-------------------|
|-8----8---8----8-|---8---8-------8-|-8---8---8----8-|----0----0-------0-|

|---------------|-----------------|---------------|-----------|
|---------------|-----------------|---------------|-----------|
|---------------|-----------------|---------------|-----------|
|-------7h0-----|---------7-------|-------7h0-----|---------7-|
|---7h0-------7h|h0---7h0---------|---7h0-------7h|h0---7h0---|
|-0---------0---|---0--------0--0-|-0---------0---|---0-------|

1:52-2:10
|------------------|-------------------------|--------------------------|
|------------------|-------------------------|--------------------------|
|-7-7-7-7/9-9-9-9/-|-10-10-10-10-10-10-10-10/|-14-14-14-14-14-14-14-14\-|
|------------------|-------------------------|--------------------------|
|-5-5-5-5/7-7-7-7/-|-8--8--8--8--8--8--8--8/-|-12-12-12-12-12-12-12-12\-|
|------------------|-------------------------|--------------------------|

|--------------------|---------------------------|-------------------------|
|--------------------|---------------------------|-------------------------|
|-7--7-7-7-7-7--7-7/-|-12--12-12-12/14-14-14-14/-|-15-15-15-15-15-15-15-15-|
|--------------------|---------------------------|-------------------------|
|-5--5-5-5-5-5--5-5/-|-10--10-10-10/12-12-12-12/-|-13-13-13-13-13-13-13-13-|
|--------------------|---------------------------|-------------------------|

|--------------------------|-------------------------|
|-13-13-13-13/15-15-15-15/-|-17-17-17-17-17-17-17-17-|
|--------------------------|-------------------------|   X2
|-10-10-10-10/12-12-12-12/-|-14-14-14-14-14-14-14-14-|
|--------------------------|-------------------------|
|--------------------------|-------------------------|

2:11-2:21
|---------------------|-----------------|---------------------|
|---------------------|-----------------|---------------------|
|---------------------|-----------------|---------------------|
|---------------------|-----------------|---------------------|
|-8-0-5/7-0-0-0-0-0-0-|-8-0-5/7-0-3-0-0-|-8-0-5/7-0-0-0-0-0-0-|
|-8-0-5/7-0-0-0-0-0-0-|-8-0-5/7-0-3-0-0-|-8-0-5/7-0-0-0-0-0-0-|


|---------------------|
|---------------------|
|-10---9/4-2----7-----|
|---------------------|
|-8--0-7/4-0--0-5-0-0-|
|----0--------0---0-0-|


|-----------------------|--------------------|--------------------------|
|-----------------------|--------------------|--------------------------|
|-10---7/9--------------|-10---7/9---14------|-10---7/9-----------------|
|-----------------------|--------------------|--------------------------|
|-8--0-5/7--0-0-0-0-0-0-|-8--0-5/7-0-12--0-0-|-8--0-5/7--0-0-0-0-0-0----|
|----0------0-0-0-0-0-0-|----0-----0-----0-0-|----0------0-0-0-0-0-0----|

|----------------|
|----------------|
|-10---7/9-----5-|
|----------------|
|-8--0-5/7--0--3-|
|----0------0----|

2:21-2;32
|-----5-------5---|-----------------|-------------------|
|---6---6---6---6-|-----------------|-------------------|
|-7-------7-------|-----------------|----------7---10h9-|
|-----------------|-8h7-----0h8h7---|---8h7h10---8------|
|-----------------|-----7h8-------8-|-------------------|
|-----------------|-----------------|-8-----------------|

|--------------------|
|--------------------|
|----------7---10/14-|
|---8h7h10---8-------|   X2
|--------------------|
|-8------------------|

HAVNT FIGURED OUT SOLO YET


THEN THE BREAKDOWN LISTEN TO THE SONG TO FIGURE OUT RYTHEM AND TIMING
BREAKDOWN:
2:44-2:49

2:50-3:03
|----------------------|----------------------|------------------------|
|----------------------|----------------------|------------------------|
|----------------------|----------------------|------------------------|
|-----------7h0--------|-8----------------(7)-|-------------7h0--------|
|-0-0-0-8h7-----0-10h8-|---7--0-10h8h12h8h7---|-0-0-0-0-8h7-----0-10h8-|
|-0-0-0---------0------|------0---------------|-0-0-0-0---------0------|

|-----------------------|
|-----------------------|
|-----------------------|
|-8-----------------7h0-|
|---7-0-10h8h12h8h7-----|
|-----0-----------------|


|-----------------------|--------------------|--------------------------|
|-----------------------|--------------------|--------------------------|
|-----------------------|--------------------|--------------------------|
|-----------------------|----------------7h0-|--------------------------|
|-0-0-0-0-----0-0-0-0-0-|-0-0-0-0-10h8h7-----|-0-0-0-0----0-0-0-0-0-----|
|-0-0-0-0-----0-0-0-0-0-|-0-0-0-0------------|-0-0-0-0----0-0-0-0-0-----|

|-----------------|
|-----------------|
|-----------------|
|-----------------|
|-0-0-0-0-8h7h5h7-|
|-0-0-0-0---------|


THEN THE FINAL BREAKDOWN,
     LISTEN TO THE SONG TO FIGURE OUR RYTHEM AND TIMING

| /  slide up
| \  slide down
| h  hammer-on
Comments