August Burns Red - A Wish Full Of Dreams Chords & Tabs

 

A Wish Full Of Dreams Chords & Tabs

August Burns Red Chords & Tabs

Version: 1 Type: Tab

A Wish Full Of Dreams Tab

   
This tab starts after about 18 seconds.......

Drop C-

||--------------------------------------------------------------|
||--------------------------------------------------------------|
||--------------------------------------------------------------|
||--------------------------------------------------------------|
||-0-00000-0-000-00-00-00-0000----------------------------------|
||-0-00000-0-000-00-00-00-0000----------------------------------|
   . ..... . ... .. .. .. ....
[ Tab from: http://www.guitartabs.cc/tabs/a/august_burns_red/a_wish_full_of_dreams_tab.html ]
||-------------------------------------------------------------------------|
||-------------------------------------------------------------------------|
||---------3p2p0------------777101010------------777---------101010--------|
||-3-0-2-0-------3-5--------------------------777-------------------101010-|
||-------------------000-000----------555-555--------888-888---------------|
||-------------------000-000----------555-555--------888-888---------------|
                     ... ...          ... ...        ... ...
||--------------------------------------------------------------|
||--------------------------------------------------------------|
||---------10---------------------------------------------------|
||---------x--------8-------8---7h8-----------------------------|
||---------8--------8-------8---7h8-----------------------------|
||-0-0-0-0----0-0-0-8-0-0-0-8-0-7h8-----------------------------|
   . . . .    . . .   . . .   .
||--------------------------------------------------------------|
||--------------------------------------------------------------|
||--------------------------------------------------------------|
||--------------------------------------------------------------|
||-121212121212-88-131313131313-1212-444444-00-555555-0-5-0-5-7-|
||--------------------------------------------------------------|

||---------------------------------------------------------------|
||---------------------------------------------------------------|
||-----14---14-----10/15-----15----------------------------------|
||-----x----x------x---------x-----------------------------------|
||-----12---12-----8/-13-----13-----12-----4p0---4p0---5p0---5p0-|
||-0-0----0----0-0-------0-0----0-0-12-0-0-----0-----0-----0-----|
   . .    .    . .       . .    . .    . .     .     .     .

  Guitar I
||--------------------------------------------------------------|
||--------------------------------------------------------------|
||--------------------------------------------------------------|
||--------------------------------------------------------------|
||-555555-444444-888888-777777----------------------------------|
||--------------------------------------------------------------|

  Guitar II
||--------------------------------------------------------------|
||--------------------------------------------------------------|
||--------------------------------------------------------------|
||--------------------------------------------------------------|
||-000000-0000-0-0-00-0-00--------------------------------------|
||-000000-0000-0-0-00-0-00--------------------------------------|
   ...... .... . . .. . ..

Thanks, please rate!