Audiovent - When The Rain Chords & Tabs

 

When The Rain Chords & Tabs

Audiovent Chords & Tabs

Version: 1 Type: Bass Tab 0 ratings
1 star 2 stars 3 stars 4 stars 5 stars
comments

When The Rain Bass Tab

Drop D tuning

INTRO
G|--------------|----------------|---------------|
D|--------------|----------------|---------------|
A|------5555----|---3333---------|---------------|
D|---6----------|--------3/5555--|-8-88--10-1010-|

G|--------------|----------------|---------------|
D|--------------|----------------|---------------|
A|------5555----|---3333---------|---------------|
D|--------------|--------5/8888--|----5555-------|

G|--------------|----------------|---------------|
D|--------------|----------------|---------------|
A|------5555----|---3333---------|---------------|
D|--------------|--------3/5555--|-8-88--10-1010-|

PRE-CHORUS (x2)
G|--------------|----------------|
D|--------------|----------------|
A|---5---5---5--|----------------|
D|-00-000-000---|--0-8-0-10------|

CHORUS (x2)
G|--------------|----------------|x2
D|--------------|----------------|
A|--------------|----------------|
D|-0-1012-0-1210|-0-1012-10-0-10-|

G|--------------|----------------|
D|--------------|----------------|
A|--------------|----------------|
D|--3(X8)-5(X8)-|-8(X8)--10(X8)--|

G|--------------|----------------|---------------|
D|--------------|----------------|-(GUITAR SOLO)-|
A|------5555----|---3333---------|---------------|
D|--------------|--------3/5555--|---------------|

G|--------------|----------------|---------------|
D|--------------|----------------|---------------|
A|------5555----|---3333---------|---------------|
D|----6---------|--------5/8888--|----5555-------|
[ Tab from: http://www.guitartabs.cc/tabs/a/audiovent/when_the_rain_btab.html ]
G|--------------|----------------|---------------|
D|--------------|----------------|---------------|
A|------5555----|---3333---------|---------------|
D|--------------|--------3/5555--|-8-88--10-1010-|

CHORUS (x2)
G|--------------|----------------|x2
D|--------------|----------------|
A|--------------|----------------|
D|-0-1012-0-1210|-0-1012-10-0-10-|

G|--------------|----------------|---------------|---------------|
D|--------------|----------------|---------------|---------------|
A|--------------|-55---55--55-33-|-33-33-22--22--|-22-11-11--11--|
D|-0----0-------|----------------|---------------|---------------|

G|--------------|----------------|---------------|---------------|
D|--------------|----------------|---------------|---------------|
A|--------------|----------------|---------------|---------------|
D|-00-00--00-33-|-33-33-55--55---|-55----8888----|---10101010----|

PRE-CHORUS (x2)
G|--------------|----------------|
D|--------------|----------------|
A|---5---5---5--|----------------|
D|-00-000-000---|--0-8-0-10------|

CHORUS (x2)
G|--------------|----------------|x2
D|--------------|----------------|
A|--------------|----------------|
D|-0-1012-0-1210|-0-1012-10-0-10-|

G|--------------|----------------|
D|--------------|----------------|
A|--------------|----------------|
D|--3(X8)-5(X8)-|-8(X8)--10(X8)--|

G|--------------|----------------|
D|--------------|----------------|
A|--------------|----------------|
D|-00--00--00---|-333-0-555------|

G|--------------|----------------|
D|--------------|----------------|
A|--------------|----------------|
D|-00--00--00---|-333-0----------|
Comments